» » »

Keep It To Yourself Tabs (ver.1)

Artists:  A B C D E F G H I J K L M N O P Q R S T U V W X Y Z # 

Keep It To Yourself Tabs (ver.1)

Reuben
Rating:
5/5 (2 votes)

Hard to play? Try these video lessons and learn fast.
                Artist/Band - Reuben
Album - Very Fast Very Dangerous
Song - Keep It To Yourself

Tuning: C# G# C# F# A# D#

Key:
x  = Mute String
PM = Palm Mute
/  = Slide Upwards
b  = Bend String


Intro:
D#]----0-------0-------0----------|
A#]----4-------4-------4----------|
F#]----0-------0-------0----------|
C#]--4-----4-4-----4-4-----4-0-0--|
G#]--4-----4-4-----4-4-----4-0-0--|
C#]--4-----4-4-----4-4-----4-0-0--|

D#]----0-------0-------0--------0--|
A#]----4-------4-------4--------5--|
F#]----0-------0-------0-----0--0--|
C#]--4-----4-4-----4-4-----4-0-----| x3
G#]--4-----4-4-----4-4-----4-0-----|
C#]--4-----4-4-----4-4-----4-0-----|


Verse 1:
D#]--------------------------------------------------------|
A#]--------------------------------------------------------|
F#]--------------------------------------------------------|
C#]--4---4-4---4-4---4-0-0--7-7-7-7-7-7-7-7-7-7-7-7---3-3--| x2
G#]--4---4-4---4-4---4-0-0--7-7-7-7-7-7-7-7-7-7-7-7---3-3--|
C#]--4---4-4---4-4---4-0-0--7-7-7-7-7-7-7-7-7-7-7-7---3-3--|


Chorus:
D#]----------------------------------------------------------------------|
A#]----------------------------------------------------------------------|
F#]----------------------------------------------------------------------|
C#]--9-9-9-8-7-4-7-8--9-9-9-8-7-4-7-8--9-9-9-8-7-4-7-9-------------------| x2
G#]--9-9-9-8-7-4-7-8--9-9-9-8-7-4-7-8--9-9-9-8-7-4-7-9--5-5-5-5-5-5-5-5--|
C#]--9-9-9-8-7-4-7-8--9-9-9-8-7-4-7-8--9-9-9-8-7-4-7-9--0-0-0-0-0-0-0-0--|


Pre-Verse:
D#]----0-------0-------0--------0--|
A#]----4-------4-------4--------5--|
F#]----0-------0-------0-----0--0--|
C#]--4-----4-4-----4-4-----4-0-----| x2
G#]--4-----4-4-----4-4-----4-0-----|
C#]--4-----4-4-----4-4-----4-0-----|


Verse 2:
D#]---------------------------------|
A#]---------------------------------|
F#]---------------------------------|
C#]--4-4-4-3-3-3-3-2-2-2-2/9-9-9-7--| x4
G#]--4-4-4-3-3-3-3-2-2-2-2/9-9-9-7--|
C#]--4-4-4-3-3-3-3-2-2-2-2/9-9-9-7--|
PM   . . . . . . . . . . . . . . .

D#]--0----0----0----0-0----0----0----0----0-0--|
A#]--4----4----4----4/5----4----4----4----4/5--|
F#]--------------------------------------------|
C#]--------------------------------------------| x2
G#]--------------------------------------------|
C#]--------------------------------------------|

D#]------------------------------------------------|
A#]------------------------------------------------|
F#]--11-11-11/13-13-13-13/14-14-14-14/16-16/18-18--|
C#]---x--x--x--x--x--x--x--x--x--x--x--x--x--x--x--|
G#]---9--9--9/11-11-11-11/12-12-12-12/14-14/16-16--|
C#]------------------------------------------------|

D#]---------------------------|
A#]------------------------0--|
F#]------------------------0--|
C#]--4-4-4-3-3-3-3-2-2-2-2-0--|
G#]--4-4-4-3-3-3-3-2-2-2-2-0--|
C#]--4-4-4-3-3-3-3-2-2-2-2-0--|


Chorus:
D#]----------------------------------------------------------------------|
A#]----------------------------------------------------------------------|
F#]----------------------------------------------------------------------|
C#]--9-9-9-8-7-4-7-8--9-9-9-8-7-4-7-8--9-9-9-8-7-4-7-9-------------------| x2
G#]--9-9-9-8-7-4-7-8--9-9-9-8-7-4-7-8--9-9-9-8-7-4-7-9--5-5-5-5-5-5-5-5--|
C#]--9-9-9-8-7-4-7-8--9-9-9-8-7-4-7-8--9-9-9-8-7-4-7-9--0-0-0-0-0-0-0-0--|


Bridge:
D#]----0-------0-------0--------0--|
A#]----4-------4-------4--------5--|
F#]----0-------0-------0-----0--0--|
C#]--4-----4-4-----4-4-----4-0-----| x2
G#]--4-----4-4-----4-4-----4-0-----|
C#]--4-----4-4-----4-4-----4-0-----|

D#]----0-------0-------0----------|
A#]----4-------4-------4----------|
F#]----0-------0-------0----------|
C#]--4-----4-4-----4-4-----4-0-0--| x2
G#]--4-----4-4-----4-4-----4-0-0--|
C#]--4-----4-4-----4-4-----4-0-0--|


Solo:
D#]--------------------------------|
A#]--12-----12-------12-----12-----|
F#]-----13b-------------13b--------|
C#]------------12--------------12--| x5
G#]--------------------------------|
C#]--------------------------------|


Pre-Chorus:
D#]-----------0-------0-------0--------0--|
A#]-----------4-------4-------4--------5--|
F#]-----------0-------0-------0-----0--0--|
C#]--0-7-9--4-----4-4-----4-4-----4-0-----|
G#]--0-7-9--4-----4-4-----4-4-----4-0-----|
C#]--0-7-9--4-----4-4-----4-4-----4-0-----|

D#]----0-------0-------0--------0--|
A#]----4-------4-------4--------5--|
F#]----0-------0-------0-----0--0--|
C#]--4-----4-4-----4-4-----4-0-----| x2
G#]--4-----4-4-----4-4-----4-0-----|
C#]--4-----4-4-----4-4-----4-0-----|

D#]----0-------0-------0------------------|
A#]----4-------4-------4------------------|
F#]----0-------0-------0------------------|
C#]--4-----4-4-----4-4-----4-0-0---4-0-0--|
G#]--4-----4-4-----4-4-----4-0-0---4-0-0--|
C#]--4-----4-4-----4-4-----4-0-0---4-0-0--|

Chorus:
D#]----------------------------------------------------------------------|
A#]----------------------------------------------------------------------|
F#]----------------------------------------------------------------------|
C#]--9-9-9-8-7-4-7-8--9-9-9-8-7-4-7-8--9-9-9-8-7-4-7-9-------------------| x3
G#]--9-9-9-8-7-4-7-8--9-9-9-8-7-4-7-8--9-9-9-8-7-4-7-9--5-5-5-5-5-5-5-5--|
C#]--9-9-9-8-7-4-7-8--9-9-9-8-7-4-7-8--9-9-9-8-7-4-7-9--0-0-0-0-0-0-0-0--|

D#]-----|
A#]--4--|
F#]--0--|
C#]--x--|
G#]--4--|
C#]--4--|
            
Hard to play? Try these video lessons and learn fast. | Correct




comments powered by Disqus
↑ Back to top | Tablatures and chords are parodies/interpretations of the original songs. You may use it for private study, scholarship, research or language learning purposes only