» » »

Resorte, Caliente Tabs (ver.1)

Artists:  A B C D E F G H I J K L M N O P Q R S T U V W X Y Z # 

Caliente Tabs (ver.1)

Resorte Tabs
 Rating:
4/5 (4 votes)
Caliente lessons Tabs too difficult? Try these video lessons and learn fast
1
                Intro: bass

Riff 1 
eb|-------------------------| x8 |-----|
Bb|-------------------------|    |-----|
Gb|-------------------------|    |-----|
Db|-2--1--0--2--1--0--x--x--|    |-(5)-|
Ab|-2--1--0--2--1--0--x--x--|    |-----|
Db|-2--1--0--2--1--0--x--x--|    |-----|

Inter:Bajo

Riff 2
p.m..............................
eb|------------------------------------|x8
Bb|------------------------------------|
Gb|-------------------------------7-7--|
Db|--6-6-6-6-6-6-4-/7-7-7-7-4-4-4-5-5--|
Ab|--4-4-4-4-4-4-2-/5-5-5-5-2-2-2------|
Db|------------------------------------|
   Estoy caliente, sin calma......

Riff 3
eb|---------------------------------| x4
Bb|---------------------------------|
Gb|---------------------------------|
Db|--11--2---11--2--5-4-2-----------|
Ab|--11--2---11--2--5-4-2-----------|
Db|--11--2---11--2--5-4-2-----------|

Riff 4
eb|---------------------------------| x4
Bb|---------------------------------|
Gb|---------------------------------|
Db|----11/2\\11/2---5-4-2------------|
Ab|----11/2\\11/2---5-4-2------------|
Db|----11/2\\11/2---5-4-2------------|

Riff 5
eb|---------------------------------|
Bb|---------------------------------|
Gb|---------------------------------|
Db|---2-x-2-x-2-x-2-x-5-4-2---------|
Ab|---2-x-2-x-2-x-2-x-5-4-2---------|
Db|---2-x-2-x-2-x-2-x-5-4-2---------|

Inter:Bajo

 Riff 1
 Riff 2
 Riff 3
 Riff 4

eb|-----------------------------------------------------|
Bb|-----------------------------------------------------|
Gb|-----------------------------------------------------|
Db|---2/4-2/4-2/4-2/4-4/5-4/5-4/5\\4-5/4-5/4-5/4-5/4-4---|
Ab|---2/4-2/4-2/4-2/4-4/5-4/5-4/5\\4-5/4-5/4-5/4-5/4-4---|
Db|---2/4-2/4-2/4-2/4-4/5-4/5-4/5\\4-5/4-5/4-5/4-5/4-4---|

Inter:bajo

 Riff 1

thats it
            
Submit corrections

comments powered by Disqus
↑ Back to top | Resorte Tabs for Caliente. Lyrics for acoustic guitar and electric guitar. 1 Tablatures and chords are parodies/interpretations of the original songs. You may use it for private study, scholarship, research or language learning purposes only