>
 >
America

America Guitar Tabs

Resorte - America chords, tabs, tablatures, lyrics

Guitar lessons | Add/correct | Request | Top 50 tabs Artists:  A B C D E F G H I J K L M N O P Q R S T U V W X Y Z 0-9

America Guitar Tabs – Resorte

CD, Sheet music, Poster

Do you like America? Share with your friends now
Tabs
Tuning: Db Ab Db Gb Bb Eb

Key :

h: hammer	
p: pull          
b: bend          
/: slide up
p.m.: palm mute	
\\: slide down     
(5): natural harmonics

RIFF 1
Eb|------------------------------(5)--------|
Bb|------------------------------(5)--------|
Gb|------------------------------(5)--------|
Db|-4h6-6-6-4h6-6-6-4h6-6-6-4-6--(5)--------|
Ab|-4h6-6-6-4h6-6-6-4h6-6-6-4-6--(5)--------|
Db|-4h6-6-6-4h6-6-6-4h6-6-6-4-6--(5)--------|

Eb|------------------------------(7)--------|
Bb|------------------------------(7)--------|
Gb|------------------------------(7)--------|
Db|-4h6-6-6-4h6-6-6-4h6-6-6-4-6--(7)--------|
Ab|-4h6-6-6-4h6-6-6-4h6-6-6-4-6--(7)--------|
Db|-4h6-6-6-4h6-6-6-4h6-6-6-4-6--(7)--------| 

Eb|------------------------------(5)--------|
Bb|------------------------------(5)--------|
Gb|------------------------------(5)--------|
Db|-4h6-6-6-4h6-6-6-4h6-6-6-4-6--(5)--------|
Ab|-4h6-6-6-4h6-6-6-4h6-6-6-4-6--(5)--------|
Db|-4h6-6-6-4h6-6-6-4h6-6-6-4-6--(5)--------| 

Eb|-------------------------------------------|
Bb|-------------------------------------------|
Gb|-------------------------------------------|
Db|-4h6-6-6-4h6-6-6-4h6-6-6-4-6---------------|
Ab|-4h6-6-6-4h6-6-6-4h6-6-6-4-6---------------|
Db|-4h6-6-6-4h6-6-6-4h6-6-6-4-6--/-12-\\-------|


RIFF 2
p.m........................
Eb|--------------------------------|
Bb|--------------------------------|
Gb|--------------------------------|
Db|-4-6-6-4-6-6-4-6-6-4-6----------|
Ab|-4-6-6-4-6-6-4-6-6-4-6----------|
Db|-4-6-6-4-6-6-4-6-6-4-6----------| x 2

p.m......................
Eb|------------------------(5)----|
Bb|------------------------(5)----|
Gb|------------------------(5)----|
Db|-4-6-6-4-6-6-4-6-6-4-6--(5)----|
Ab|-4-6-6-4-6-6-4-6-6-4-6--(5)----|
Db|-4-6-6-4-6-6-4-6-6-4-6--(5)----|

p.m......................
Eb|------------------------(7)----|
Bb|------------------------(7)----|
Gb|------------------------(7)----|
Db|-4-6-6-4-6-6-4-6-6-4-6--(7)----|
Ab|-4-6-6-4-6-6-4-6-6-4-6--(7)----|
Db|-4-6-6-4-6-6-4-6-6-4-6--(7)----|

RIFF 2

RIFF 3
Eb|-------------------------------|
Bb|-------------------------------|
Gb|-------------------------------|
Db|-0h1-0h1-0h1-0h1-1-4h6---------|
Ab|-0h1-0h1-0h1-0h1-1-4h6---------|
Db|-0h1-0h1-0h1-0h1-1-------------| x4


RIFF 4
p.m...............................|
Eb|-----------------------------------|
Bb|-----------------------------------|
Gb|-----------------------------------|
Db|-----------------------------------|
Ab|--6-4-0-1-3-0-1-3-0-1-3-0-1-3-4----|
Db|--6-4-0-1-3-0-1-3-0-1-3-0-1-3-4----| x3


p.m..........|
Eb|-----------------------------|
Bb|-----------------------------|
Gb|-----------------------------|
Db|------------0-1-3-0-1-3-4----|
Ab|--6-4-0-1-3-0-1-3-0-1-3-4----|
Db|--6-4-0-1-3-0-1-3-0-1-3-4----|

RIFF 1

RIFF 2 x2

RIFF 3

RIFF 4


p.m...................|
Eb|-----------------------|
Bb|-----------------------|
Gb|-----------------------|
Db|--6-6-6-6--6-6--6-6----|
Ab|--6-6-6-6--6-6--6-6----|
Db|--6-6-6-6--6-6--6-6----| x4


Eb|-------------------------------|
Bb|-------------------------------|
Gb|-------------------------------|
Db|--6p4--3p1-3-6p4--3p1--3-3-3---|
Ab|--6p4--3p1-3-6p4--3p1--3-3-3---|
Db|--6p4--3p1-3-6p4--3p1--3-3-3---| x4

p.m...................|
Eb|-----------------------|
Bb|-----------------------|
Gb|-----------------------|
Db|--6-6-6-6--6-6--6-6----|
Ab|--6-6-6-6--6-6--6-6----|
Db|--6-6-6-6--6-6--6-6----| x4

FILL
Eb|-----------------------|
Bb|-----------------------|
Gb|-1--4--1--6b7b6--------|
Db|-1--4--1--6b7b6--------|
Ab|-----------------------|
Db|-----------------------| x4

RIFF 5
Eb|------------------------|
Bb|------------------------|
Gb|------------------------|
Db|--6-6--4-4--1--4-4-4----|
Ab|--6-6--4-4--1--4-4-4----|
Db|--6-6--4-4--1--4-4-4----| x2

Eb|-------------------------------|
Bb|-------------------------------|
Gb|--8-8-8-8-6-6-6-6--------------|
Db|--x-x-x-x-x-x-x-x--1--4-4-4----|
Ab|--6-6-6-6-4-4-4-4--1--4-4-4----|
Db|--6-6-6-6-4-4-4-4--1--4-4-4----| x2

RIFF 5 x2

FINAL
Eb|------------------------------(5)--------|
Bb|------------------------------(5)--------|
Gb|------------------------------(5)--------|
Db|-4h6-6-6-4h6-6-6-4h6-6-6-4-6--(5)--------|
Ab|-4h6-6-6-4h6-6-6-4h6-6-6-4-6--(5)--------|
Db|-4h6-6-6-4h6-6-6-4h6-6-6-4-6--(5)--------| 

Eb|-------------------------------------------|
Bb|-------------------------------------------|
Gb|-------------------------------------------|
Db|-4h6-6-6-4h6-6-6-4h6-6-6--x-x-x--x-x-x-----|
Ab|-4h6-6-6-4h6-6-6-4h6-6-6--x-x-x--x-x-x-----|
Db|-4h6-6-6-4h6-6-6-4h6-6-6--x-x-x--x-x-x-----|
			     
Eb|------------------------------(5)--------|
Bb|------------------------------(5)--------|
Gb|------------------------------(5)--------|
Db|-4h6-6-6-4h6-6-6-4h6-6-6-4-6--(5)--------|
Ab|-4h6-6-6-4h6-6-6-4h6-6-6-4-6--(5)--------|
Db|-4h6-6-6-4h6-6-6-4h6-6-6-4-6--(5)--------| 


Eb|--------------------------------------|
Bb|--------------------------------------|
Gb|--------------------------------------|
Db|-4h6-6-6-4h6-6-6-4-6-6-6-4-6\\0--------|
Ab|-4h6-6-6-4h6-6-6-4-6-6-6-4-6\\0--------|
Db|-4h6-6-6-4h6-6-6-4-6-6-6-4-6\\0--------|

Well, thats the whole song, see ya later

RESORTE !!!!!!!!!!!!!





Comments


Popular Resorte tabs & chords
Alcohol Bass Tabs
Alcohol 1 Bass Tabs
Alcohol Tabs
Caliente Tabs
Caliente 1 Tabs
Caliente 2 Tabs


Song lyrics



↑ Back to top | Tablatures and chords are parodies/interpretations of the original songs. You may use it for private study, scholarship, research or language learning purposes only
© 2014 AZChords.com Contact us | Privacy policy | DMCA | Add/correct tabs | Request tabs | Top 50 tabs