» » »

Resorte, Alcohol Bass tabs (ver.2)

Artists:  A B C D E F G H I J K L M N O P Q R S T U V W X Y Z # 

Alcohol Bass tabs (ver.2)

Resorte Tabs
Rating:
0/5 (0 votes)
Alcohol lessons Tabs too difficult? Try these video lessons and learn fast
                4-String bass

Tuning: normal tuning

Bueno para los fans de Resorte como yo, aqui esta la version 4 cuerdas de alcohol (Juan la toca en un bajo 5), pero si se puede
sacarlo en 4

s/ = slide down   
s/ =  Jalar la cuerda para abajo
SLP = Slapping: Pull with the finger:  
SLP = Haz slapping jalando con el dedo la cuerda

Intro y Coro        

G---------------------------------------------------------
D---------------------------------------------------------
A---------------------------------------------------------
E--5--44--5--4--5-4-5-4-----6--55--6--5--6--5--6--5-

G---------------------------------------------------------
D---------------------------------------------------------
A---------------------------------------------------------
E---9--88--9-8--9-8-9-8-----6--55--6--5--6--5--6--5-


Versos
G---------------------------------------------------------
D-----------------------------1111-----------------------
A------------1111----------------------------------------
E---3333------------0000--------------------------------

Pre coro  (Cuando Empieza  "Alcohol, dale......"
G---------------------------------------------------------
D---------------------------------------------------------                         
A---------------------------------------------------------
E--33333333-----s/6--66-----00000000------8---88--

Interludio             Lo calmado o lento
G---------------------------------------------------------
D---------------------------------------------------------
A---------------------------------------------------------
E------5----3-------6----3------5----3------0--0-------

Hard Part       Parte Pesada      02:51
G-----SLP-1----------------------------------------------
D-----SLP-3---------------------------------------------
A---------------------------------------------------------
E---------------------------------------------------------

Last Verse        Ultimo verso  03: 10

G---------------------------------------------------------
D---------------------------------------------------------
A---------------------------------------------------------
E--0-----/55555555---------0-----/55555555---------

G---------------------------------------------------------
D---------------------------------------------------------
A---------------------------------------------------------
E--0-----/55555555---------0-----/55555555---------

G---------------------------------------------------------
D---------------------------------------------------------
A---------------------------------------------------------
E--0-----/55555555---------0-----/55555555---------

Let the last note ring                 Deja sonar la ultima nota   

G---------------------------------------------------------
D---------------------------------------------------------
A---------------------------------------------------------
E-----------------------5----------------------------------

Asi suena la cancion real, si quieren ya los que son mas expertos pueden modificar el slapping si quieren. Gracias a Resorte por prestarme su cancion, y si quieren mas tabs de grupos mexicanos, ponganle rate a este tab, Vale?????

That way goes the real song, if you want can change the final slapping, Please, rate this tab, and I promise, I give you more mexican Bands Tabs alright???
            
Submit corrections

comments powered by Disqus
↑ Back to top | Resorte Bass for Alcohol. Lyrics for acoustic guitar and electric guitar. Tablatures and chords are parodies/interpretations of the original songs. You may use it for private study, scholarship, research or language learning purposes only