» » »

Resorte, Alcohol Bass tabs (ver.1)

Artists:  A B C D E F G H I J K L M N O P Q R S T U V W X Y Z # 

Alcohol Bass tabs (ver.1)

Resorte Tabs
Rating:
0/5 (0 votes)
Alcohol lessons Tabs too difficult? Try these video lessons and learn fast
                G--------------------------------------------------------------
D--------------------------------------------------------------
A---------------------------------------------------------5H7H5   INTRO/CHORUS
E----5--3---5--3---6--5--6--5---8--7--8--7----6--5--6-5H7------
B--------------------------------------------------------------


G---------------------------
D---------------------------
A---------------------------   PRECHORUS AND VERSES
E---3333/66666---------88888
B----------------4444-------


G-------------------------------
D------------------------------
A------------------------------   INTERLUDE
E----5--3---6--5----5--3-------
B----------------------------44

G-------------------------
D-------------------------
A-------------------------     LAST CHORUS
E--3333------3333------333
B-------44-6------44-6----

E------5-------------------   LAST NOTE AND END
            
Submit corrections

comments powered by Disqus
↑ Back to top | Resorte Bass for Alcohol. Lyrics for acoustic guitar and electric guitar. Tablatures and chords are parodies/interpretations of the original songs. You may use it for private study, scholarship, research or language learning purposes only