» » »

Resorte, Alcohol Tabs (ver.1)

Artists:  A B C D E F G H I J K L M N O P Q R S T U V W X Y Z # 

Alcohol Tabs (ver.1)

Resorte Tabs
 Rating:
4/5 (4 votes)
Alcohol lessons Tabs too difficult? Try these video lessons and learn fast
1
                Tunning: D A D G B E

Intro
  Both
E|-------------------------------------||
B|-------------------------------------||
G|-------------------------------------|| 
D|-5-5-5-5-5-5-5-5-5-5-5---------------||
A|-5-5-5-5-5-5-5-5-5-5-5---------------||
D|-5-5-5-5-5-5-5-5-5-5-5---------------|| 

  Guitar 1
E|-----------------------------------------------------------||
B|-----------------------------------------------------------||
G|-2-0-2-0-2-0-3-0-2-0-3-0-2-0-5-0-4-0-5-0-4-0-3-0-2-0-3-0-2-|| X2
D|-0-0-0-0-0-0-0-0-0-0-0-0-0-0-0-0-0-0-0-0-0-0-0-0-0-0-0-0-0-||
A|-----------------------------------------------------------||
D|-----------------------------------------------------------||

  Guitar 2
E|--------------------------------------||
B|--------------------------------------||
G|--------------------------------------||
D|-----3h5p3----------------------------||
A|-3-5----------------------------------||
D|--------------------------------------||

  Both
E|------------------------------------------||
B|----------------------------------^-^-^-^-||
G|------------3-3-3-3-3-------------5-5-5-5-|| x4
D|-5-5-5-5-5--3-3-3-3-3--1-1-1-1-1--x-x-x-x-||
A|-5-5-5-5-5--1-1-1-1-1--1-1-1-1-1--3-3-3-3-||
D|-5-5-5-5-5-------------1-1-1-1-1----------||

  Both
E|------------------------------------------||
B|----------------------------------^-^-^-^-||
G|------------3-3-3-3-3-------------5-5-5-5-|| x2
D|-5-5-5-5-5--3-3-3-3-3--1-1-1-1-1--x-x-x-x-||
A|-5-5-5-5-5--1-1-1-1-1--1-1-1-1-1--3-3-3-3-||
D|-5-5-5-5-5-------------1-1-1-1-1----------||

E|-----------------------------------------------------------||
B|-----------------------------------------------------------||
G|-2-0-2-0-2-0-3-0-2-0-3-0-2-0-5-0-4-0-5-0-4-0-3-0-2-0-3-0-2-|| X2
D|-0-0-0-0-0-0-0-0-0-0-0-0-0-0-0-0-0-0-0-0-0-0-0-0-0-0-0-0-0-||
A|-----------------------------------------------------------||
D|-----------------------------------------------------------||

  BRIDGE
E|--------------------------------------||
B|--------------------------------------||
G|-2-0~~-3-2~~-2-0~~--------------------|| x4
D|-------------------1-1-1--------------||
A|-------------------1-1-1--------------||
D|-------------------1-1-1--------------||

 
E|--------------------------------------||
B|--------------------------------------||
G|--------------------------------------||
D|-----3h5p3----------------------------||
A|-3-5----------------------------------||
D|--------------------------------------||

  OUTRO
E|--------------------------------------||
B|--------------------------------------||
G|--------------------------------------|| x12
D|-5-5-5-5-5-5-5-5-5-5-5----------------|| 
A|-5-5-5-5-5-5-5-5-5-5-5----------------||
D|-5-5-5-5-5-5-5-5-5-5-5----------------||


E|--------------------------------------||
B|--------------------------------------||
G|-7-7-7-7-7-7/8-8-8-8------------------||
D|-x-x-x-x-x-x-x-x-x-x------------------||
A|-5-5-5-5-5-5/6-6-6-6------------------||
D|--------------------------------------||

  End
E|--------------------------------------||
B|--------------------------------------||
G|--------------------------------------|| 
D|-7~~~~--------------------------------||
A|-5~~~~--------------------------------||
D|-5~~~~--------------------------------||
            
Submit corrections

comments powered by Disqus
↑ Back to top | Resorte Tabs for Alcohol. Lyrics for acoustic guitar and electric guitar. 1 Tablatures and chords are parodies/interpretations of the original songs. You may use it for private study, scholarship, research or language learning purposes only