» » »

Keep On Loving You Bass tabs (ver.1)

Artists:  A B C D E F G H I J K L M N O P Q R S T U V W X Y Z # 

Keep On Loving You Bass tabs (ver.1)

Reo Speedwagon
Rating:
0/5 (0 votes)

Tabs too difficult? Try these video lessons and learn fast.
                KEEP ON LOVING YOU
Reo Speedwagon

Intro:           Verse 1
G|---------|     |------------|
D|---------|     |------------|
A|---------|     |------------| 2x
E|-1------1|     |-1-1------1-|

Pre Chorus
G|-----------------|---------------------------------|--------------------|
D|-----------------|-----------------------7-5-3-5-5-|----------5-3-2—5---|
A|-----------------|---------8-7---------------------|--------------------|
E|-1-1---3---1---3-|-5-5-5-5-----6-5---5-5-----------|-3-3--1/3---------1-|

Verse 2
G|----------------------------------------|
D|----------------------------------------|
A|----------------------------------------| 2X
E|-1-1--1-1--1-1--1-1--1-1--1-1--1-1--1-1-|

Pre Chorus 1
G|--------------------|--------------------------------------------|
D|--------------------|-----------------------7-5-3-2--5---3---2---|
A|--------------------|---------8-7--------------------------------|
E|-1-3--3-1--1-3--3-5-|-5-5-5-5-----6-5---5-5--------------------3-|

Chorus 1
G|------------------|--------------------------|-------------------------|
D|------------------|------------------------7-|-8-7-5-3---5-7-5---3---2-|
A|-3------------0-1-|-3--------------------7---|-------------------------|
E|----1-1--3--3-----|----1-1--3---3/5--6-5-----|-------------------------|

SOLO
G|----|    ------|       -----|
D|----|    ------|       --3--|
A|----|    ------| 11x   -----| 16X
E|-1--|    -1-1--|       -----|

Pre Chorus 2
G|--------------------|------------------------------------------------|
D|--------------------|-----------------------7-5-3-2--5---5-3---3-2---|
A|--------------------|---------8-7------------------------------------|
E|-1-3--3-1--1-3--3-5-|-5-5-5-5-----6-5---5-5------------------------3-|

REPEAT CHORUS

Chorus 2
G|------------------|--------------------------|-------------------------|
D|------------------|------------------------7-|-8-7-5-3---5-7-5---3---2-|
A|-3------------0-1-|-3--------------------7---|-------------------------|
E|----1-1--3--3-----|----1-1--3---3/5--6-5-----|-------------------------|

G|------------------|
D|-2----------------|
A|------------------|
E|---1--1-1---1---1-|
            
Tabs too difficult? Try these video lessons and learn fast.


comments powered by Disqus
↑ Back to top | Tablatures and chords are parodies/interpretations of the original songs. You may use it for private study, scholarship, research or language learning purposes only