» » »

Your Eyes Tabs (ver.2)

Artists:  A B C D E F G H I J K L M N O P Q R S T U V W X Y Z # 

Your Eyes Tabs (ver.2)

Rent
Rating:
5/5 (1 vote)

Tabs too difficult? Try these video lessons and learn fast.
                e|----8---------------8--------7-------------------8-----------------------|
B|-----------------8---------------------------8------------10-------------|
G|--------------9--------------------------9-------------------------------|
D|--------- 10-------------------------10----------------------------------|
A|-------------------------------------------------------------------------|
E|-------------------------------------------------------------------------|

e|------7-8-7---------8----------------------7----------------------------|
B|--10---------10--8------------------8-10------10--8---------------------|
G|-------------------------10-10------------------------------------------|
D|------------------------------------------------------------------------|
A|------------------------------------------------------------------------|
E|------------------------------------------------------------------------|

e|--7-----------8-----------8----7-------------8---------------------------|
B|-----------------------8------------------8--------10--------------------|
G|-----9-9------------9------------------9---------------------------------|
D|----------------10-----------------10------------------------------------|
A|-------------------------------------------------------------------------|
E|-------------------------------------------------------------------------|

e|-------7-8---15-12-------------------------------------------------------|
B|--10----------------15-13------------------------------------------------|
G|---------------------------14-----12-------------------------------------|
D|------------------------------14-----------------------------------------|
A|--------------------------------------14-15-15---------------------------|
E|-------------------------------------------------------------------------|
            
Tabs too difficult? Try these video lessons and learn fast.


comments powered by Disqus
↑ Back to top | Tablatures and chords are parodies/interpretations of the original songs. You may use it for private study, scholarship, research or language learning purposes only