» » »

Rent, What You Own Chords (ver.1)

Artists:  A B C D E F G H I J K L M N O P Q R S T U V W X Y Z # 

What You Own Chords (ver.1)

Rent Tabs
 Rating:
4/5 (7 votes)
What You Own lessons Tabs too difficult? Try these video lessons and learn fast
1
                
CHORDS:
                     If you're playing open 
                     V chords/barres play E here, not Em.
     A5 G5 C#5 D5 E5 E5(1) B5 F#5 Ab5 Eb5 Eb5(1) Bb5 F5 F5(2)
e||---------------------------------------------------------||
B||---------------------------------------------------------||
G||--------6---7--9-------------------8---8-------------10--||
D||--7--5--6---7--9--2-----9--4---6---8---8------8---3--10--||
A||--7--5--4---5--7--2-----9--4---6---6---5------8---3--9---||
E||--5--3------------0-----7--2---4--------------6---1------||


INTRO:
e||------------------|------------------||
B||--------0---0-----|-----------------.||
G||--2---2-------2---|--0---0-2---2-0---|| Repeat x2
D||----2-----2-------|----0-----0------.||
A||------------------|------------------||
E||------------------|------------------||

CHORUS-RIFF1:          CHORUS-RIFF2:
e||------------------------||------------------------||
B||------------------------||------------------------||
G||------6-----7---9-------||------7-----8---10------||
D||----6-----7-----9-------||----7-----8-----10------||
A||--4-----5-----7-7-------||--5-----6-----8-8-------||
E||------------------------||------------------------||


VERSE
A5                      G5
Don't breathe too deep, Don't think all day
A5              G5
Dive into work, Drive the other way
C#5            D5  C#5             E5
That drip of hurt, That pint of shame
C#5             D5         E5
Goes away, Just play the game


CHORUS
                 A5      F#5
You're living in America
                    E5(1)  D5
At the end of the millennium
                 A5      F#5
You're living in America
                      F5        D5
Leave your conscience at the tone
                          A5      F#5
And when you're living in America
                    E5(1)  D5
At the end of the millennium
   (CHORUS-RIFF1 HERE)
You're what you own


VERSE
A5                         G5
The filmmaker cannot see, And the songwriter cannot hear
A5                         G5
Yet I see Mimi everywhere, Angel's voice is in my ear
C#5                D5         C#5                          E5
Just tighten those shoulders, Just clench your jaw til you frown
C#5                   D5         E5
Just don't let go, Or you may drown


CHORUS
                 A5      F#5
You're living in America
                    E5(1)  D5
At the end of the millennium
                 A5      F#5
You're living in America
                      F5        D5
Where it's like the twilight zone
                          A5      F#5
And when you're living in America
                    E5(1)  D5
At the end of the millennium
   (CHORUS-RIFF1 HERE)
You're what you own


BRIDGE
D5                 B5
So I own not a notion
      A5
I escape an ape content
D5               A5      E5
I don't own emotion- I rent

F#5        A5             D5
What was it about that night
F#5        A5             E5
Connection- In an isolating age
Ab5                  B5             C#5
For once the shadows gave way to light
Ab5               C#5      Eb5
For once I didn't disengage

B5                   C#5
Angel- I hear you- I hear it
Eb5
I see it- I see it my film!
B5          C#5
Alexi-Mark, Call me a hypocrite
  Eb5
I need to finish my Own film
I quit!


CHORUS2
        Bb5      G5
Dying in America
                    F5   Eb5
At the end of the millennium
               Bb5    G5
We're dying in America
                  F#5      Eb5
To come into our own
                         Bb5     G5
And when you're dying in America
                    F5     Eb5
At the end of the millennium
   (CHORUS-RIFF2 HERE)
You're not alone
Ab5     Eb5   F5(2)
I'm not alone
Ab5     Eb5   F5(2)
I'm not alone

Possibly the most appalling end to a song ever but up to then it's 
pretty good. Tab is perfect although the C#5 in the chorus sounds 
a little dissonant but it shold be fine.
            
Submit corrections

comments powered by Disqus
↑ Back to top | Rent Chords for What You Own. Lyrics for acoustic guitar and electric guitar. 1 Tablatures and chords are parodies/interpretations of the original songs. You may use it for private study, scholarship, research or language learning purposes only