» » »

What You Own Tabs (ver.1)

Artists:  A B C D E F G H I J K L M N O P Q R S T U V W X Y Z # 

What You Own Tabs (ver.1)

Rent
Rating:
3/5 (8 votes)

Hard to play? Try these video lessons and learn fast.
                Rent
"What You Own"
Tuning Standard

Intro(repeat once)

E------------------------------------------------------------------------------|
B--------0---0-----------------------------------------------------------------|
G--2---2-------2-----0---0-2---2-0---------------------------------------------|
D----2-----2-----------0-----0-------------------------------------------------|
A------------------------------------------------------------------------------|
E------------------------------------------------------------------------------|

Verses 1 and 2

E-------------------------------------------------------------------------------|
B-------------------------------------------------------------------------------|
G-------------------------------------------------------------------------------|
D--7-7-7-7-7-7-7-7-7-7-7-7----5-5-5-5-5-5-5-5-5-5-5-5-5-------------------------|
A--7-7-7-7-7-7-7-7-7-7-7-7----5-5-5-5-5-5-5-5-5-5-5-5-5-------------------------|
E--5-5-5-5-5-5-5-5-5-5-5-5----3-3-3-3-3-3-3-3-3-3-3-3-3-------------------------|
1."Don't breath too deep,     don't think all day.
2.("The filmaker cannot see,  and the songwriter cannot hear)
  "Dive into work,            drive the other way.
  (Yet I see Mimi everywhere, angel's voice is in my ear")
   "That trip of hurt,        that pint of shame"
  ("Just tighten those shoulders, and clench your jaw til you frown")
  "Goes away just            play the game"
  ("Just don't let go,       or you may drown")

Chorus

E----------------------------------------------------------------------------|
B----------------------------------------------------------------------------|
G------------------9-------------------------9------7------------------------|
D-------7----------9---7---------------------9------7------------------------|
A-------7----------7---7---------------------7------5------------------------|
E-------5--------------5-----------------------------------------------------|
You're living in America, at the end of the millenium

E---------------------------------------------------------------------------|
B---------------------------------------------------------------------------|
G-----------------9-----------------------------------7---------------------|
D-----------------9----7---------------9--------------7---------------------|
A-----------------7----7---------------9--------------5---------------------|
E----------------------5---------------7------------------------------------|
You're  living in America, leave your concious at the tone
                          (where it's like the twilight zone)

E--------------------------------------------------------------------------|
B--------------------------------------------------------------------------|
G-------------------------9--------------------------9-----7---------------|
D-------------------------9----7---------------------9-----7---------------|
A-------------------------7----7---------------------7-----5---------------|
E------------------------------5-------------------------------------------|
And when you're living in america, at the end of the millenium...

E-------------------------------------|
B-------------------------------------|
G-5-5-5-7-7-7-9-9---------------------|
D-5-5-5-7-7-7-9-9-----------------7---|
A-3-3-3-5-5-5-7-7-----------------7---|
E---------------------------------5---|
                 You're what you own.

Bridge

E--------------------------------------------------------------------------|
B--------------------------------------------------------------------------|
G--------------------------------------------------------------------------|
D---7-7-7----------------------5-5-5---------------------------------------|
A---7-7-7----------------------5-5-5---------------------------------------|
E---5-5-5----------------------3-3-3---------------------------------------|
So I....                    ...I escape....
(Treat this bridge just like verse 1 and 2 until...)

E----------------------------------------------------------------------------|
B----------------------------------------------------------------------------|
G----------------------------------------------------------------------------|
D-4----------6-------------------------------4------------------------6------|(8)
A-4----------6-------------------------------4------------------------6------|(8)
E-2----------4-------------------------------2------------------------4------|(6)
What was it(what was it) about that night?  Conviction in an isolated end
For once the shadows gave into night.  For once I didn't descend.
Angel I see you, Mimi I hear you     I hear it, I hear it, I hear it my song
Angel, Mark, call me a hypocrit,     I need to finish my own film    (I quit)

Final Chorus is played just like the first two, except up an entire fret
            
Hard to play? Try these video lessons and learn fast. | Correct




comments powered by Disqus
↑ Back to top | Tablatures and chords are parodies/interpretations of the original songs. You may use it for private study, scholarship, research or language learning purposes only