» » »

Rent, Seasons Of Love Tabs (ver.3)

Artists:  A B C D E F G H I J K L M N O P Q R S T U V W X Y Z # 

Seasons Of Love Tabs (ver.3)

Rent Tabs
 Rating:
4.6/5 (11 votes)
Seasons Of Love lessons Tabs too difficult? Try these video lessons and learn fast
1
                Rent
Seasons of Love
Tuning: Standard

Intro:
|-8-----------------------------------|
|-----8-----------------------10------|
|---------10--10--10----9--10--9------|
|---------10------10---10--10---------|
|-8---7-------------------------------|
|-------------------------------------| (x2)
(This is pretty much the main tune in the song)

Verse:
|-8-----------------------------------|
|-----8-----------------------10------|
|---------10--10--10----9--10--9------|
|---------10------10---10--10---------|
|-8---7-------------------------------|
|-------------------------------------| (x8)

Chorus: (0:54) How about love... 
(Listen to the piano being played to get the rhythm)
|---------------------------------|
|-6----6-6--6----6----6--6--6--6--|
|-7----7-7--7----7----7--7--5--5--|
|-8--8---8-----8---8--8--8--7-----|
|---------------------------------|
|---------------------------------| (x3)

|-----------8------|
|--------6--8------|
|--7---------------|
|--8---------------|
|--8---------------|
|--6---------------|

|-8-----------------------------------|
|-----8-----------------------10------|
|---------10--10--10----9--10--9------|
|---------10------10---10--10---------|
|-8---7-------------------------------|
|-------------------------------------| (x2)

Verse 2:
|-8-----------------------------------|
|-----8-----------------------10------|
|---------10--10--10----9--10--9------|
|---------10------10---10--10---------|
|-8---7-------------------------------|
|-------------------------------------|(x8)

Chorus: (2:09) How about love...
|---------------------------------|
|-6----6-6--6----6----6--6--6--6--|
|-7----7-7--7----7----7--7--5--5--|
|-8--8---8-----8---8--8--8--7-----|
|---------------------------------|
|---------------------------------| (x3)

|------------------------------|
|------------6-----------------|
|--7---------------------------|
|--8---------------------------|
|--8-------------------5-4-3---|
|--6---------------------------|

Outro:
|-8-------------------------------8---------------------|
|-----8----------------------10-------8-----------------|
|---------10--10--10----9-10--9-----------10--10--10----|
|---------10------10---10-10--------------10------10----|
|-8---7---------------------------8---7-----------------|
|-------------------------------------------------------|
            
Submit corrections

comments powered by Disqus
↑ Back to top | Rent Tabs for Seasons Of Love. Lyrics for acoustic guitar and electric guitar. 1 Tablatures and chords are parodies/interpretations of the original songs. You may use it for private study, scholarship, research or language learning purposes only