>
 >
Out Tonight 1

Out Tonight 1 Guitar Tabs

Rent - Out Tonight 1 chords, tabs, tablatures, lyrics

Guitar lessons | Add/correct | Request | Top 50 tabs Artists:  A B C D E F G H I J K L M N O P Q R S T U V W X Y Z 0-9

Out Tonight 1 Guitar Tabs – Rent

CD, Sheet music, Poster

Do you like Out Tonight 1? Share with your friends now
ChordsChords v2Chords v3TabsTabs v2Tabs v3Ukulele
Out Tonight
Rent
written by Jonathan Larson

Tuning: Standard (EADGBE)
******************************************************************

Snazzy drum intro for 2 measures

  <==Play this once==> <====Play this 4 times====>
E|--------------------|---------------------------|
B|--------------------|---------------------------|
G|--------------------|--7--7\--------------------|
D|--------------------|--5--5\--------------------|
A|--7--7--7--5--7--5--|---------7--7--7--5--7--5--|
E|--5--5--------------|---------5--5--------------|


  <=Play this thrice=> <====Play this 4 times====> STRUM
E|--------------------|---------------------------|-----|
B|--------------------|---------------------------|-----|
G|--------------------|--7--7\--------------------|--7--|
D|--------------------|--5--5\--------------------|--7--|
A|--7--7--7--5--7--5--|---------7--7--7--5--7--5--|--5--|
E|--5--5--------------|---------5--5--------------|-----|

                          <=====STRUM=====>
E|-----------------------|-----|-----|-----|
B|-----------------------|-----|-----|-----|
G|--10--10--10--9--8--7--|--7--|-----|-----|
D|--10--10--10--9--8--7--|--7--|--7--|--7--|
A|--8---8---8---7--6--5--|--5--|--7--|--7--|
E|-----------------------|-----|--5--|--5--|

                         <======STRUM======> 
E|-----------------------|-----|-----|-----|
B|-----------------------|-----|-----|-----|
G|--10--10--10--9--8--7--|--7--|--9--|--9--|
D|--10--10--10--9--8--7--|--7--|--9--|--9--|
A|--8---8---8---7--6--5--|--5--|--7--|--7--|
E|-----------------------|-----|-----|-----|

  <=================STRUM=================>
E|-----|-----|-----|-----|-----|-----|-----|
B|-----|-----|-----|-----|-----|-----|-----|
G|-----|--7--|-----|--7--|--5--|--7--|--1--|
D|--4--|--7--|--4--|--7--|--5--|--7--|--2--|
A|--4--|--5--|--4--|--5--|--3--|--5--|--2--|
E|--2--|-----|--2--|-----|-----|-----|--0--|


For the chorus, play this line 4 times
(7 times in the 3rd chorus)
after each time play the corresponding line below

Rhythm:
  D=====================> E========================>
Lead:
E|-----------------------|--------------------------|
B|--3--3--2--2--0--0-----|--------------------------|
G|--------------------2--|--1--1-----------------2--|
D|-----------------------|--------4--4--2--2--4-----|
A|-----------------------|--------------------------|
E|-----------------------|--------------------------|


1st and 2nd time
E|-----------------|--------------------|
B|--3--3--3--3--2--|--3--3--3--3--3--2--|
G|--2--2--2--2--2--|--2--2--2--2--2--2--|
D|--0--0--0--0--0--|--0--0--0--0--0--0--|
A|-----------------|--------------------|
E|-----------------|--------------------|


3rd time
  <==STRUM==>
E|-----|-----|
B|-----|-----|
G|-----|--7--|
D|--4--|--7--|
A|--4--|--5--|
E|--2--|-----|


4th time (5th 6th & 7th in 3rd chorus)
(play this line 2 times by itself at the very end of the song)
E|--------------------------|
B|--3--3--3--3--3--3--3--2--|
G|--2--2--2--2--2--2--2--2--|
D|--0--0--0--0--0--0--0--0--|
A|--------------------------|
E|--------------------------|

End of chorus


2nd verse just goes straight from the intro to the prechorus
E|--------------------|---------------------------|--------|
B|--------------------|---------------------------|--------|
G|--------------------|--7--7\--------------------|--7--7--|
D|--------------------|--5--5\--------------------|--5--5--|
A|--7--7--7--5--7--5--|---------7--7--7--5--7--5--|--------|
E|--5--5--------------|---------5--5--------------|--------|

  <=================STRUM=================>
E|-----|-----|-----|-----|-----|-----|-----|
B|-----|-----|-----|-----|-----|-----|-----|
G|-----|--7--|-----|--7--|--5--|--7--|--1--|
D|--4--|--7--|--4--|--7--|--5--|--7--|--2--|
A|--4--|--5--|--4--|--5--|--3--|--5--|--2--|
E|--2--|-----|--2--|-----|-----|-----|--0--|

2nd chorus goes here.  It's exactly the same as the first, just look up.

Play this 4 times
E|-----------------|-----------------|-----------2--|--0--|
B|-----------7-----|-----------9-----|--------------|-----|
G|--------7-----7--|--------9-----9--|--------------|-----|
D|-----7-----------|-----9-----------|--------4-----|-----|
A|--5--------------|--7--------------|-----4--------|-----|
E|-----------------|-----------------|--2-----------|-----|

 this riff goes at the end of the 2nd time
E|--6-h-7-p-6-----------6--|-----0--|
B|-------------7-----7-----|--5-----|
G|----------------9--------|--------|
D|-------------------------|--------|
A|-------------------------|--------|
E|-------------------------|--------|

then play this lead in to the last chorus
                          <==STRUM==>
E|-----------|-----------|-----|-----|
B|-----------|-----------|-----|-----|
G|--------7--|--------9--|-----|--9--|
D|-----7-----|-----9-----|--9--|--9--|
A|--5--------|--7--------|--7--|--7--|
E|-----------|-----------|-----|-----|

3rd chorus, play the rhythm/lead part 7 times instead of 4
play the 4th ending after the 4th, 5th, 6th and 7th times
then play the 4th ending alone, without the lead 2 more times





Comments


Popular Rent tabs & chords
One Song Glory Chords
Seasons Of Love Chords
Another Day Intro Tabs
I Should Tell You 1 Tabs
Mussetas Waltz Tabs
No Day But Today Tabs
Seasons Of Love 3 Tabs
Seasons Of Love Intro Tabs
Take Me Or Leave Me Tabs
Will I? 1 Tabs


Song lyrics



↑ Back to top | Tablatures and chords are parodies/interpretations of the original songs. You may use it for private study, scholarship, research or language learning purposes only
© 2014 AZChords.com Contact us | Privacy policy | DMCA | Add/correct tabs | Request tabs | Top 50 tabs