» » »

Rent, No Day But Today Tabs (ver.1)

Artists:  A B C D E F G H I J K L M N O P Q R S T U V W X Y Z # 

No Day But Today Tabs (ver.1)

Rent Tabs
 Rating:
4/5 (4 votes)
No Day But Today lessons Tabs too difficult? Try these video lessons and learn fast
1
                So I figured out the beginning of this, and I'm pretty sure it's all right. It's really 
easy, and just to the tune of the song. Have fun (:


There's only us, there's only this, forget regret, or lift if your to miss.
-----------------------------------------------------------------------------|
--7-10-8-7-10-10-8-7-8-7-10-10---8-7------7----------------------------------|
------------------------------9-7---9-7-9------------------------------------|
-----------------------------------------------------------------------------|
-----------------------------------------------------------------------------|
-----------------------------------------------------------------------------|


No other road, no other way, no day but today.
------------------------------------------------------------------------------|
--7-10-8-7-10-10-8-7-8-7-10-10------------------------------------------------|
-------------------------------9-7-7------------------------------------------|
------------------------------------------------------------------------------|
------------------------------------------------------------------------------|
------------------------------------------------------------------------------|
            
Submit corrections

comments powered by Disqus
↑ Back to top | Rent Tabs for No Day But Today. Lyrics for acoustic guitar and electric guitar. 1 Tablatures and chords are parodies/interpretations of the original songs. You may use it for private study, scholarship, research or language learning purposes only