>
 >
I'll Cover You

I'll Cover You Guitar Tabs

Rent - I'll Cover You chords, tabs, tablatures, lyrics

Guitar lessons | Add/correct | Request | Top 50 tabs Artists:  A B C D E F G H I J K L M N O P Q R S T U V W X Y Z 0-9

I'll Cover You Guitar Tabs – Rent

CD, Sheet music, Poster

Do you like I'll Cover You? Share with your friends now
Bass TabsChordsChords v2Tabs
Music and lyrics by Jonathan Larson


e--3-----------------3---------------------5---------------------3--|
B--5-----------------3---------------------6---------------------3--|
G--5-----------------4---------------------5---------------------4--|
D--5-----------------5---------------------0---------------------5--|
A--3-----------------5---------------------x---------------------5--|
E--------------------3---------------------5---------------------3--|
   Live in my house, I'll be your shelter; just pay me back with one hundred kisses.

e--1-----------3------------3---3--|
B--1-----------3------------5---3--|
G--2-----------4------------5---4--|
D--3-----------5------------5---5--|
A--3-----------5------------3---5--|
E--1-----------3----------------3--|
    Be my lover--I'll cover you

e--3---------------3---------------------5-------------------------3--|
B--5---------------3---------------------6-------------------------3--|
G--5---------------4---------------------5-------------------------4--|
D--5---------------5---------------------0-------------------------5--|
A--3---------------5---------------------x-------------------------5--|
E------------------3---------------------5-------------------------3--|
   Open your door, I'll be your tenant.  Don't got much baggage to lay at your feet,

e------1------------------------3---------------1-----------------3--|
B------1------------------------3---------------1-----------------3--|
G------2------------------------4---------------2-----------------4--|
D------3------------------------5---------------3-----------------5--|
A------3------------------------5---------------3-----------------5--|
E------1------------------------3---------------1-----------------3--|
   But sweet kisses I've got to spare.  I'll be there, I'll cover you.

e--5--------------------------------5------------------------------3--|
B--5--------------------------------5------------------------------3--|
G--5--------------------------------5------------------------------3--|
D--7--------------------------------7------------------------------5--|
A--7--------------------------------8------------------------------5--|
E--5--------------------------------5------------------------------3--|
   I think they meant it, when they said you can't buy love; but I know you can rent it,

e--------6-----------------------8---------------8---6--|
B--------6-----------------------8---------------8---6--|
G--------8-----------------------8---------------8---8--|
D--------8-----------------------10--------------10--8--|
A--------6-----------------------11--------------10--6--|
E--------------------------------8---------------8------|
   A new lease you are my love.  One life--be my life.

     F                  C                         Bb  C
I've longed to discover something as true as this is

          Bb                          C
So with a thousand sweet kisses                I'll cover you
                           (If you're cold and your lonely)

       Bb                           C
With a thousand sweet kisses                I'll cover you
                        (You've got one nickel only)

       Bb                            C
With a thousand sweet kisses                I'll cover you
                        (When you're worn out and tired)

       Bb                          C
With a thousand sweet kisses                I'll cover you
                        (When your heart has expired)


Eb C#               F
Oh lover I'll cover you
Oh lover I'll cover you





Comments


Popular Rent tabs & chords
Out Tonight 2 Chords
Without You Chords
I Should Tell You 1 Tabs
Seasons Of Love 1 Tabs
Will I? Tabs
Without You Intro Tabs
Your Eyes 3 Tabs
Santa Fe Ukulele
Will I Ukulele
Your Eyes Ukulele


Song lyrics



↑ Back to top | Tablatures and chords are parodies/interpretations of the original songs. You may use it for private study, scholarship, research or language learning purposes only
© 2014 AZChords.com Contact us | Privacy policy | DMCA | Add/correct tabs | Request tabs | Top 50 tabs