» » »

When I Was Young Throw Those Trolls Away Tabs (ver.1)

Artists:  A B C D E F G H I J K L M N O P Q R S T U V W X Y Z # 

When I Was Young Throw Those Trolls Away Tabs (ver.1)

R.E.M.
Rating:
0/5 (0 votes)

Hard to play? Try these video lessons and learn fast.
                ------------------------------------------------------------------------
                WHEN I WAS YOUNG (THROW THOSE TROLLS AWAY) - REM
------------------------------------------------------------------------

Intro/Bridge:
e|--0--0-----0--0--0--0-------------------|
B|----------------------------------------|
G|---7--7-7>9-9--9--7--7-6-7-6--6666666---|
D|-0--0--0-----0--0-----0-----7-7777777---|
A|----------------------------------------|
E|----------------------------------------|

Verse:
e|--------------------------------------0--------|
B|--------------------------------------0--------|
G|--------------------------7-7-7-5-4-0-7-9-7----|
D|-5-7h-7-7-5-4-0-7-7-5-4-0-0-0-0-0-0-0-9----9---|
A|-0-0--0-0-0-0-0-0-0-0-0-0----------------------|
E|-----------------------------------------------|

Chorus
e|-0---0-0---0---0-0-------------|
B|-0---5-3---2---5-3-------------|
G|-1---4-4---2---4-4-------------|
D|-2---0-0---2---0-0-------------|
A|-2---------0-------------------|
E|-0---------0-------------------|
            
Hard to play? Try these video lessons and learn fast. | Correct




comments powered by Disqus
↑ Back to top | Tablatures and chords are parodies/interpretations of the original songs. You may use it for private study, scholarship, research or language learning purposes only