>
 >
Wanderlust

Wanderlust Bass Tabs

R.E.M. - Wanderlust chords, tabs, tablatures, lyrics

Guitar lessons | Add/correct | Request | Top 50 tabs Artists:  A B C D E F G H I J K L M N O P Q R S T U V W X Y Z 0-9

Wanderlust Bass Tabs – R.E.M.

CD, Sheet music, Poster

Do you like Wanderlust? Share with your friends now
Bass Tabs

I think this is pretty much as it is played on the CD.
A fun little song to play along to, and really quite simple,
Despite the rather bizzare timing in the Intro and Chorus.
It seems the first half of them are in 7/8 and the second half in 4/4
Are REM so poor they can no longer afford to put all the notes on the CD?
Hope not.

Enjoy!

Tuning is Standard.

Intro				   (X3)
G|----------------------------|--------------------4-------4---4-3-|
D|5---------------------------|------------4-----4-------4---4-----|
A|--------5-----------4---7---|4---2-------------------------------|
E|----------------5-----------|------------------------------------|


Verse 1
"Looks like I pulled a fast one..."
  1   +   2   +   3   +   4   +    1   +   2   +   3   +   4   +
G|2---2-------2-------------------|------------------------0---1---|
D|----------2---2-3---3-------3---|----------------2---2-----------|
A|--------------------------3-----|3---3-------3-------------------|
E|------------------------------3-|----------3---3-----------------|

G|2---2-------2-------------------|------------------------------0-|
D|----------2---2-3---3-------3---|----------------0---0---0-1-2---|
A|--------------------------3-----|3---3-------3-------------------|
E|------------------------------3-|----------3---3-----------------|

"I thought I'd kicked the traces..."
G|2---2-------2-------------------|------------------------0---1---|
D|----------2---2-3---3-------3---|----------------2---2-----------|
A|--------------------------3-----|3---3-------3-------------------|
E|------------------------------3-|----------3---3-----------------|

G|2---2-------2-------------------|--------------------------------|
D|----------2---2-3---3-------3---|----------------0-0-0-0-0-0-0-0-|
A|--------------------------3-----|3---3-------3-------------------|
E|------------------------------3-|----------3---3-----------------|


Chorus 1
"I got my signals crossed..."
				   (X3)
G|----------------------------|--------------------4-4-----4---4-3-|
D|5---------------------------|------------4-------------4---4-----|
A|--------5-----------4---7---|4---2-------------------------------|
E|----------------5-----------|------------------------------------|


Verse 2
"I had to grab a suitcase..."
  1   +   2   +   3   +   4   +    1   +   2   +   3   +   4   +
G|2---2-------2-------------------|------------------------0---1---|
D|----------2---2-3---3-------3---|----------------2---2-----------|
A|--------------------------3-----|3---3-------3-------------------|
E|------------------------------3-|----------3---3-----------------|

G|2---2-------2-------------------|------------------------------0-|
D|----------2---2-3---3-------3---|----------------0---0---0-1-2---|
A|--------------------------3-----|3---3-------3-------------------|
E|------------------------------3-|----------3---3-----------------|

"I brushed against confusion..."
G|2---2-------2-------------------|------------------------0---1---|
D|----------2---2-3---3-------3---|----------------2---2-----------|
A|--------------------------3-----|3---3-------3-------------------|
E|------------------------------3-|----------3---3-----------------|

G|2---2-------2-------------------|--------------------------------|
D|----------2---2-3---3-------3---|----------------0-0-0-0-0-0-0-0-|
A|--------------------------3-----|3---3-------3-------------------|
E|------------------------------3-|----------3---3-----------------|


Chorus 2
"I got my signals crossed..."
				   (X3)
G|----------------------------|--------------------4-4-----4---4---|
D|5---------------------------|------------4-------------4---4-----|
A|--------5-----------4---7---|4---2-------------------------------|
E|----------------5-----------|------------------------------------|


Bridge
"I'm searchin' for a greatness..."
  1   +   2   +   3   +   4   +    1   +   2   +   3   +   4   +   
G|------------2---4-----4-4---2---|------------2---4-------4---4---|
D|4-------------------------------|4-------------------------4-----|
A|--------------------------------|--------------------------------|
E|--------------------------------|--------------------------------|

G|------------2---4---3---2---1---|0---0---0---0-------------------|
D|4-------------------------------|----------------2---2---2---2---|
A|--------------------------------|--------------------------------|
E|--------------------------------|--------------------------------|

G|--------------------------------|----------------|
D|2---2---2---2---2---2---2---2---|2---2---2---2---|
A|--------------------------------|----------------|
E|--------------------------------|----------------|


Chorus 3
"I got my signals crossed..."
				   (X3)
G|----------------------------|--------------------4---4---4---4---|
D|5---------------------------|------------4-------------4---4-----|
A|--------5-----------4---7---|4---2-------------------------------|
E|----------------5-----------|------------------------------------|

				   (X3)
G|----------------------------|--------4---6---6---8---8---9---9---|
D|5---------------------------|------------------------------------|
A|--------5-----------4---7---|4---2-------------------------------|
E|----------------5-----------|------------------------------------|

G|11--11--13--13--14--14--15--|15--16~~----------------------------|
D|----------------------------|------------------------------------|
A|----------------------------|------------------------------------|
E|----------------------------|------------------------------------|





Comments


Popular R.E.M. tabs & chords
High Speed Train Chords
Star Me Kitten Chords
Christmas In Tunisia Tabs
It's The End Of The World As We Know It Tabs
Rockville Tabs
Rotary 1 Tabs
The Lion Sleeps Tonight Tabs
Boy In The Well Ukulele
Superman Ukulele
The One I Love Ukulele


Song lyrics



↑ Back to top | Tablatures and chords are parodies/interpretations of the original songs. You may use it for private study, scholarship, research or language learning purposes only
© 2014 AZChords.com Contact us | Privacy policy | DMCA | Add/correct tabs | Request tabs | Top 50 tabs