» » »

Supernatural Superserious Bass tabs (ver.1)

Artists:  A B C D E F G H I J K L M N O P Q R S T U V W X Y Z # 

Supernatural Superserious Bass tabs (ver.1)

R.E.M.
Rating:
0/5 (0 votes)

Hard to play? Try these video lessons and learn fast.
                


Tuning: EADG

I decided to tab this song because no one on the net had tabbed it yet, it seems
to be right though

Intro:

G|-------------------------------------------------------------------------|
D|-------------------------------------------------------------------------|
A|----------------------------------------7-7-9-101010---------------------|
E|-------------------------------------------------------------------------|

Verse:
G|-------------------------------------------------------------------------|
D|-------------------------------------------------------------------------|
A|---5-5-5-9-7--7-7-9-7---5-5-5-9-7--7-7-9-7--5-5-5-2-7-7-7-9-7------------|
E|-------------------------------------------------------------------------|

G|-------------------------------------------------------------------------|
D|-------------------------------------------------------------------------|
A|---5-5-5---5--7-7-7-910-9-7----5-5-5-9-7-7-7-9-7--5-5-5-2-7-7-7-9-7------|
E|---------7---------------------------------------------------------------|

G|-------------------------------------------------------------------------|
D|-------------------------------------------------------------------------|
A|---5-5-5-9-7-7-7-9-7--5-5-5---5--7-7-7-910-9-7---------------------------|
E|----------------------------7--------------------------------------------|

Chorus:
G|-------------------------------------------------------------------------|
D|--------------12*--------------------12*12*----------------12*-----------|
A|-----7*--10*------12*-----7*-10*10*---------12*12*---7*-10*---12*--------|
E|-------------------------------------------------------------------------|

Verse:

Chorus:

Bridge: 
G|-------------------------------------------------------------------------|
D|--101010-12-10-----------------------------------------------------------|
A|----------------7-8-10-8-8-8-10-8-7-7-7----------------------------------| 
E|-------------------------------------------------------------------------|

‘Enjoy yourself with no regrets…’
G|-------------------------------------------------------------------------|
D|-------------------------------------------------------------------------|
A|--8*--/10*--/12*-/15*15*-------------------------------------------------|
E|--------------------------/15*-----/8*-----------------------------------|


Back to intro riff:
G|-------------------------------------------------------------------------|
D|-------------------------------------------------------------------------|
A|---5-5-5-5--2-2--7-7-7-9-7--5-5-5-5----5-777-9-101010--------------------| 
E|-------------------------------------7-----------------------------------|

Verse riff:
Chorus:

Ending:

G|-------------------------------------------------------------------------|
D|-------------------------------------------------------------------------|
A|---5555------77777777---5555------77777777---------5*--------------------| 
E|--------5555-----------------5555----------------------------------------|


This is my first ever tab so I hope it works for you,
            
Hard to play? Try these video lessons and learn fast. | Correct




comments powered by Disqus
↑ Back to top | Tablatures and chords are parodies/interpretations of the original songs. You may use it for private study, scholarship, research or language learning purposes only