» » »

R.E.M., Superman Bass tabs (ver.1)

Artists:  A B C D E F G H I J K L M N O P Q R S T U V W X Y Z # 

Superman Bass tabs (ver.1)

R.E.M. Tabs
 Rating:
4/5 (4 votes)
Superman lessons Tabs too difficult? Try these video lessons and learn fast
                Superman - REM
 

INTRO:

G ----------
D ----------
A ----------
E -10-h-12\-


VERSE: 
G ----------------|---------------|----------------|
D o----2-------2--|---------------|----------------|
A o---------------|-0--0--0-0--0--|-0-0--0--0-0--0-|
E --0-----0-0-----|---------------|----------------|

G ---------------|-------------|
D ----2-------2--|-2-0--------o|
A ---------------|-----2-0----o|
E -0-----0-0-----|---------3---|  x2



CHORUS:
G --------------|--------------|--------------|--------------|
D --------------|--------------|--------------|--------------|
A --------------|--------------|--------------|--------------|
E --0--0--0--0--|--5--5--5--5--|--5--5--5--5--|--0--0--0--0--|  x2
 

VERSE:

CHORUS:

BREAK:
G --------------|
D --------------|
A --5--5--------|
E --------5--5--|

G --------------|--------------|---------------|	------|
D o-------------|--------------|--------------o|	------|
A o-------------|--------------|--5--5--------o|	------|
E --0--0--3--4--|--0--0--3--4--|--------5--5---|  x3    --0~--|
 

CHORUS: x2

VERSE: x4

OUTRO: (end of 4th verse)
G --------------|------||
D --------------|------||
A --5--5--------|------||
E --------5--5--|--0---||
            
Submit corrections

comments powered by Disqus
↑ Back to top | R.E.M. Bass for Superman. Lyrics for acoustic guitar and electric guitar. Tablatures and chords are parodies/interpretations of the original songs. You may use it for private study, scholarship, research or language learning purposes only