» » »

R.E.M., Rotary Ten Tabs (ver.1)

Artists:  A B C D E F G H I J K L M N O P Q R S T U V W X Y Z # 

Rotary Ten Tabs (ver.1)

R.E.M. Tabs
Rating:
0/5 (0 votes)
Rotary Ten lessons Tabs too difficult? Try these video lessons and learn fast
                ------------------------------------------------------------------------
                ROTARY TEN - REM
------------------------------------------------------------------------

Part 1
e|---5-7-7-7-8h0----------------------x2---|
B|--5-----------7-8-7-8h-7-4-5h-0----------|
G|-5-----------------------------0-2-0-----|
D|-5----------------------------------2----|
A|-------------------------------------1---|
E|--------------------------------------2--|

Part 2
e|---------------------------------------------------------|
B|---------------------------------------------------------|
G|---------------------------------------------------------|
D|-----------------2-------------------2-----------------2-|
A|----0-1-2---3-0-1---------0-1-2---3-0-----0-1-2---3-0-1--|
E|-0-2-----1-3------x2---0-2-----1-3-----0-0-----1-3-------|

Part 3
e|-x---x-7---3---10-10-12-10--0-0-0-5-0-0-0-5--------|
B|-5---5-5---5---10-10-12---11---0-----2-3-0-3-5-3-0-|
G|-5---5-5---5---11-11-13----------------------------|
D|-5---5-5---5---------------------------------------|
A|---------------------------------------------------|
E|---------------------------------------------------|

e|-------12--10--8-----------------------------------|
B|-0-0-0---10--12-10-12------------------------------|
G|-4-0-2---------------12-9-11-12-9-11-12-9-11-8-9-7-|
D|---------------------------------------------------|
A|---------------------------------------------------|
E|---------------------------------------------------|

e|-------------0-8-7-8h-7-5-5---|
B|------------8----------8--5---|
G|-9-7-9-7----7-------------5---|
D|--------9-7---------------5---|
A|------------------------------|
E|------------------------------|
            

comments powered by Disqus
↑ Back to top | R.E.M. Tabs for Rotary Ten. Lyrics for acoustic guitar and electric guitar. Tablatures and chords are parodies/interpretations of the original songs. You may use it for private study, scholarship, research or language learning purposes only