» » »

R.E.M., Pop Song Bass tabs (ver.1)

Artists:  A B C D E F G H I J K L M N O P Q R S T U V W X Y Z # 

Pop Song Bass tabs (ver.1)

R.E.M. Tabs
 Rating:
4/5 (4 votes)
Pop Song lessons Tabs too difficult? Try these video lessons and learn fast
1
                "(9)
Intro
  1   +   2   +   3   +   4   +    1   +   2   +   3   +   4   +   
G|--------------------------------|--------------------------0-----|
D|--------0---------------0--0--0-|----2-0-------------2-0-2-----2-|
A|0-----4---------0-----4---------|0---------3-2-3-0---------------|
E|--------------3-----------------|--------------------------------|

G|--------------------------0-----|
D|----2-0-------------2-0-2-----2-|
A|0---------3-2-3-0---------------|
E|--------------------------------|


Verse 1
  1   +   2   +   3   +   4   +    1   +   2   +   3   +   4   +   
G|--------------------------------|--------------------------------|
D|--------0---0---------0---0-----|--------0---0---------0---0-----|
A|0---0-4---------0-0-4-----------|0---0-4---------0-0-4-----------|
E|--------------3---------------3-|--------------3---------------3-|

G|--------------------------0-----|--------------------------0-----|
D|----2-0-------------2-0-2-----2-|----2-0-------------2-0-2-----2-|
A|0---------3-2-3-0---------------|0---------3-2-3-0---------------|
E|--------------------------------|--------------------------------|

G|--------------------------------|--------------------------------|
D|--------0---0---------0---0-----|--------0---0---------0-----0-0-|
A|0---0-4---------0-0-4-----------|0---0-4---------0-0-4-----------|
E|--------------3---------------3-|--------------3-----------------|


Chorus 1
  1   +   2   +   3   +   4   +    1   +   2   +   3   +   4   +   
G|----------------------0---------|--------------------------------|
D|2---2---2-2-----0-0h2-------2-0-|----0---0---0---------------0-1-|
A|--------------------------------|----------------2---2---2-2-----|
E|--------------------------------|--------------------------------|

G|----------------------0---------|--------------------------------|
D|2---2---2-2-----0-0h2-------2-0-|----0---0---0-------------------|
A|--------------------------------|----------------2-2-2-2-2-------|
E|--------------------------------|----------------------------7\--|


Verse 2
  1   +   2   +   3   +   4   +    1   +   2   +   3   +   4   +   
G|--------------------------0-----|--------------------------0-----|
D|----2-0-------------2-0-2-----2-|----2-0-------------2-0-2-----2-|
A|0---------3-2-3-0---------------|0---------3-2-3-0---------------|
E|--------------------------------|--------------------------------|

G|--------------------------------|--------------------------------|
D|--------0---0---------0---0-----|--------0---0---------0---0-----|
A|0---0-4---------0-0-4-----------|0---0-4---------0-0-4-----------|
E|--------------3---------------3-|--------------3---------------3-|

G|--------------------------0-----|--------------------------0-----|
D|----2-0-------------2-0-2-----2-|----2-0-------------2-0-2-----2-|
A|0---------3-2-3-0---------------|0---------3-2-3-0---------------|
E|--------------------------------|--------------------------------|

G|--------------------------------|--------------------------------|
D|--------0---0---------0---0-----|--------0---0---------0-----0-0-|
A|0---0-4---------0-0-4-----------|0---0-4---------0-0-4-----------|
E|--------------3---------------3-|--------------3-----------------|


Chorus 2
  1   +   2   +   3   +   4   +    1   +   2   +   3   +   4   +   
G|----------------------0---------|--------------------------------|
D|2---2---2-2-----0-0h2-------2-0-|----0---0---0---------------0-1-|
A|--------------------------------|----------------2---2---2-2-----|
E|--------------------------------|--------------------------------|

G|----------------------0---------|----------------|
D|2---2---2-2-----0-0h2-------2-0-|----0---0---0---|
A|--------------------------------|----------------|
E|--------------------------------|----------------|


Solo 1
  1   +   2   +   3   +   4   +    1   +   2   +   3   +   4   +   
G|--------------------------------|--------------7---7-------------|
D|--------------7---7-------------|------------9-------9-----------|
A|------------9-------9---------7-|7-7-7---7-7-----------7---7-9---|
E|7-7-7---7-7-----------7---7-9---|------------------------------7-|

G|--------------------------------|--------------------------------|
D|--------------7---7-------------|--------------------------------|
A|------------9-------9---------7-|7-7-7---7-7---5-5-5-5-5-5---5\--|
E|7-7-7---7-7-----------7---7-9---|--------------------------------|


Verse 3
  1   +   2   +   3   +   4   +    1   +   2   +   3   +   4   +   
G|--------------------------0-----|--------------------------0-----|
D|----2-0-------------2-0-2-----2-|----2-0-------------2-0-2-----2-|
A|0---------3-2-3-0---------------|0---------3-2-3-0---------------|
E|--------------------------------|--------------------------------|

G|--------------------------------|--------------------------------|
D|--------0---0---------0---0-----|--------0---0---------0---0-----|
A|0---0-4---------0-0-4-----------|0---0-4---------0-0-4-----------|
E|--------------3---------------3-|--------------3---------------3-|

G|--------------------------0-----|--------------------------0-----|
D|----2-0-------------2-0-2-----2-|----2-0-------------2-0-2-----2-|
A|0---------3-2-3-0---------------|0---------3-2-3-0---------------|
E|--------------------------------|--------------------------------|

G|--------------------------------|--------------------------------|
D|--------0---0---------0---0-----|--------0---0---------0-----0-0-|
A|0---0-4---------0-0-4-----------|0---0-4---------0-0-4-----------|
E|--------------3---------------3-|--------------3-----------------|


Chorus 3
  1   +   2   +   3   +   4   +    1   +   2   +   3   +   4   +   
G|----------------------0---------|--------------------------------|
D|2---2---2-2-----0-0h2-------2-0-|----0---0---0---------------0-1-|
A|--------------------------------|----------------2---2---2-2-----|
E|--------------------------------|--------------------------------|

G|----------------------0---------|--------------------------------|
D|2---2---2-2-----0-0h2-------2-0-|----0---0---0-------------------|
A|--------------------------------|----------------2-2-2-2-2-------|
E|--------------------------------|----------------------------7\--|


Outro
  1   +   2   +   3   +   4   +    1   +   2   +   3   +   4   +   
G|--------------------------0-----|--------------------------0-----|
D|----2-0-------------2-0-2-----2-|----2-0-------------2-0-2-----2-|
A|0---------3-2-3-0---------------|0---------3-2-3-0---------------|
E|--------------------------------|--------------------------------|

G|--------------------------0-----|--------------------------0---2-|
D|----2-0-------------2-0-2-----2-|----2-0-------------2-0-2-------|
A|0---------3-2-3-0---------------|0---------3-2-3-0---------------|
E|--------------------------------|--------------------------------|

G|--------------------------0---2-|--------------------------0---2-|
D|----2-0-------------2-0-2-------|----2-0-------------2-0-2-------|
A|0---------3-2-3-0---------------|0---------3-2-3-0---------------|
E|--------------------------------|--------------------------------|

G|--------------------------0---2-|--------------------------------|
D|----2-0-------------2-0-2-------|----2-0-------------------------|
A|0---------3-2-3-0---------------|0---------3-2-3-0-0-0-0---------|
E|--------------------------------|--------------------------------|
"            
Submit corrections

comments powered by Disqus
↑ Back to top | R.E.M. Bass for Pop Song. Lyrics for acoustic guitar and electric guitar. 1 Tablatures and chords are parodies/interpretations of the original songs. You may use it for private study, scholarship, research or language learning purposes only