» » »

R.E.M., Perfect Circle Bass tabs (ver.1)

Artists:  A B C D E F G H I J K L M N O P Q R S T U V W X Y Z # 

Perfect Circle Bass tabs (ver.1)

R.E.M. Tabs
 Rating:
4/5 (4 votes)
Perfect Circle lessons Tabs too difficult? Try these video lessons and learn fast
                I'm yet to find a bass tab for this song on the net, so i thought i'd try it. it's such
sweet and sorrowful song, and i think fun to play. this is my frist tab so if there r
correction feel free to to make them. i only did this myself to try and encourage those 
better tabbing talent than me to make a proper tab, but i think it sounds right. Enjoy.


*LISTEN TO THE SONG TO FIND WHEN TO PLAY*

Verse 1 and 3
G|-------------------------------------------------------------------|
D|---12--12/3--3-3p5h3/12---12--12/3--3-3p5h3/12---12--12/5--5-5p7h5-|
A|-------------------------------------------------------------------|
E|-------------------------------------------------------------------|

Chorus
G|
D|-3-33-32-22-20-0-0p2h0-0---------|
A|-------------------------3-320---|
E|------------------------------32-|

Verse 2
G|
D|-3-33-3------------------------|
A|-------5-55-5------------------|
E|-------------5-55-53-3-3p5h3-3-|


Like i said above, i'm open for corrections.
            
Submit corrections

comments powered by Disqus
↑ Back to top | R.E.M. Bass for Perfect Circle. Lyrics for acoustic guitar and electric guitar. Tablatures and chords are parodies/interpretations of the original songs. You may use it for private study, scholarship, research or language learning purposes only