>
 >
Orange Crush 4

Orange Crush 4 Bass Tabs

R.E.M. - Orange Crush 4 chords, tabs, tablatures, lyrics

Guitar lessons | Add/correct | Request | Top 50 tabs Artists:  A B C D E F G H I J K L M N O P Q R S T U V W X Y Z 0-9

Orange Crush 4 Bass Tabs – R.E.M.

CD, Sheet music, Poster

Do you like Orange Crush 4? Share with your friends now
Bass TabsBass Tabs v2Bass Tabs v3Bass Tabs v4ChordsDrum TabsTabsTabs v2Tabs v3Tabs v4Ukulele
-------------------------------------------------------------------------------
			     Orange Crush - REM
-------------------------------------------------------------------------------


Tuning: Standard

*This sounds 100% right. E-mail me if you have 
any comments or suggestions.


*Look on the bottom of the tab for song structure.


Slide

G|-------------|
D|-------------|* Slide up from 8 to 12 and
A|-------------|  back down the fret board and pull off open 
E|-8/12/0------|



Main Groove

G|-----------------------------------------------------|
D|-----------------------------------------------------|
A|---------------------------2/4/5-5-5-5--5h7----------| The 2/4 slide is
E|-0-0-0---0-0-0--2/3-3-3-3----------------------------|  played quickly



Chorus part 1

G|-----------------------------------------------------|
D|-2--2--2-1--------2-4----------------------2---------|
A|----------4-2--4-------------0-4-2--2--2/4-----------|
E|-----------------------2--4--------------------------|



Chorus part 2

G|-----------------------------------------------------|
D|-2--2--2-1--------2-4--------------------------------|
A|----------4-2--4-------------0-4-2--2----------------|
E|-----------------------2--4------------2h4--2h4p2-0--|



During guitar solo

G|-----------------------------------------------------|
D|-------------0----0h2--------------0----0h2----------|
A|-----------------------------------------------------|
E|-0---0---3-------------0---0---3---------------------|



Song Structure

Slide
Main groove
Chorus part 1
Chorus part 2
Main groove
Chorus part 1
Chorus part 2
During guitar solo
Slide
Main groove
Chorus part 1
Chorus part 1
Chorus part 1
Chorus part 2




| /  slide up
| \  slide down
| h  hammer-on
| p  pull-off
| ~  vibrato
| +  harmonic
| x  Mute note
===============================================================================





Comments


Popular R.E.M. tabs & chords
Shiny Happy People Bass Tabs
Endgame Chords
Feeling Gravity's Pull Chords
Pop Song Chords
Star Me Kitten Chords
These Days Chords
Country Feedback Tabs
Orange Crush 3 Tabs
Toys In The Attic 1 Tabs
Me Marlon Brando Marlon Brando And I Ukulele


Song lyrics



↑ Back to top | Tablatures and chords are parodies/interpretations of the original songs. You may use it for private study, scholarship, research or language learning purposes only
© 2014 AZChords.com Contact us | Privacy policy | DMCA | Add/correct tabs | Request tabs | Top 50 tabs