» » »

Old Man Kensey Bass tabs (ver.1)

Artists:  A B C D E F G H I J K L M N O P Q R S T U V W X Y Z # 

Old Man Kensey Bass tabs (ver.1)

R.E.M.
Rating:
0/5 (0 votes)

Hard to play? Try these video lessons and learn fast.
                "(1)
REM
Old Man Kensey


Opening and Verse:

G-|-----------------------------
D-|----------2/3-4---------4/5-4
A-|-2---0-2--------2---0-2------
E-|---3--------------3----------

Chorus: (drink up the lake...)

G-|----------------------------------------------------
D-|-2----3/4-0----------2----3/4-0----------2----3/4---
A-|------------0----3/5------------0----3/5----------0-(back to verse)
E-|----------------------------------------------------
        You might need to repeat the pattern a few more times, but you get
the idea...

Break:

G-|-----------------------------------------------
D-|----4---4-----4---4----4--2---2-----2---2----2-
A-|----------4---------4-----------2---------2----
E-|-----------------------------------------------
        This repeats for some time.  At the end of the break, segue into
the verse by dropping that last e on the final repeat.


Fables is cool, etheral and other good stuff.
"            
Hard to play? Try these video lessons and learn fast. | Correct




comments powered by Disqus
↑ Back to top | Tablatures and chords are parodies/interpretations of the original songs. You may use it for private study, scholarship, research or language learning purposes only