» » »

Old Man Kensey Tabs (ver.2)

Artists:  A B C D E F G H I J K L M N O P Q R S T U V W X Y Z # 

Old Man Kensey Tabs (ver.2)

R.E.M.
Rating:
0/5 (0 votes)

Hard to play? Try these video lessons and learn fast.
                "------------------------------------------------------------------------
                OLD MAN KENSEY - REM
------------------------------------------------------------------------


Bass Intro:
e|------------------------------------------|
B|------------------------------------------|
G|------------------------------------------|
D|--------------2-3-4-----------------------|
A|-2-0-2-(2)-(2)-----2-0-2-(2)-(2)-(2)-(2)--|
E|--3-----------------3---------------------|

Intro:
e|------------------------0--------------------0-0-0-0---|
B|------------------------0--------------------0-0-0-0---|
G|------------------------4--------------------4-2-2-4h--|
D|---------------0--------2-----------0--------2---------|
A|-0-0-0-0-2h-0-2-4-2-0-2h--0-0-2h-0-2-4-2-0-2h----------|
E|-------------------------------------------------------|

Verse:
e|--------------|
B|---0--0-------|
G|----0---------|
D|--4----4------|
A|-2---0--------|
E|--------------|

Chorus: x3
e|----------------------------------|
B|----------0--------------0--0--0--|
G|----0------2-2>4---0------2--2----|
D|-2-4-4-0-2--2---2-4-4-0-2--2--2---|
A|----------------------------------|
E|----------------------------------|

e|---------0----|
B|---------0----|
G|----0----2----|
D|-2-4-4-0-2----|
A|--------------|
E|--------------|


Middle Bridge:
e|---------------------0----|
B|----0--0--0-------0---0---|
G|---3-3--3--3----1--1---1--|
D|--4---4--4--4--2----2-----|
A|-4------------2-----------|
E|--------------------------|
"            
Hard to play? Try these video lessons and learn fast. | Correct




comments powered by Disqus
↑ Back to top | Tablatures and chords are parodies/interpretations of the original songs. You may use it for private study, scholarship, research or language learning purposes only