» » »

Oh My Heart Tabs (ver.1)

Artists:  A B C D E F G H I J K L M N O P Q R S T U V W X Y Z # 

Oh My Heart Tabs (ver.1)

R.E.M.
Rating:
0/5 (0 votes)

Hard to play? Try these video lessons and learn fast.
                ------------------------------------------------------------------------
                OH MY HEART - REM
------------------------------------------------------------------------

Intro:
e|-(5)------------|
B|---(6)-0>0-0-0--|
G|-------2>4-2-0--|
D|-------0>0-0-0--|
A|----------------|
E|----------------|

Verse/Bridge to chorus:
e|-0-0-0-0-1---1-1---|
B|-1-1-1-1-1---1-1---|
G|-2-0-0-0-2---0-2---|
D|-2-2-2-0-3---3-3---|
A|-0-2-3-2-----------|
E|-0-0-0-3-----------|

Mandolin
Verse:
e|-000000000000000333331111100011111---|
A|-000002222233333000000000000000000---|
D|-000000000000000000003333322233333---|
G|-------------------------------------|

Mandolin
Bridge to Chorus/Chorus:
e|-0---3---1---1-----|
A|-3---2---0---0-----|
D|-2---0---3---3-----|
G|-0---0---0---0-----|

Chorus:
e|-0---3---1---------|
B|-1---3---3---------|
G|-0---0---2---------|
D|-2---0---0---------|
A|-3---2-------------|
E|-0---3-------------|

Middle Bridge:
e|-6---5---1---3---6---5---4---|
B|-6---5---1---3---6---5---4---|
G|-7---5---2---4---7---5---5---|
D|-8---7---3---5---8---7---6---|
A|-8---7---3---5---8---7---6---|
E|-6---5---1---3---6---5---4---|

Mandolin:
e|-000000000000000000000000000000000--|
A|-111100000000000011110000000000000--|
D|-000000003333555500000000666666667--|
G|------------------------------------|

End:
e|-1---3---5---3---0-----|
B|-3---5---6---5---1-----|
G|-2---4---5---4---2-----|
D|-0---0---0---0---2-----|
A|-----------------0-----|
E|-----------------0-----|

Mandolin
e|-1---3---5---3---1---|
A|-0---0---0---0---0---|
D|-3---------------3---|
G|-0---------------0---|
            
Hard to play? Try these video lessons and learn fast. | Correct




comments powered by Disqus
↑ Back to top | Tablatures and chords are parodies/interpretations of the original songs. You may use it for private study, scholarship, research or language learning purposes only