>
 >
Mine Smell Like Honey

Mine Smell Like Honey Guitar Tabs

R.E.M. - Mine Smell Like Honey chords, tabs, tablatures, lyrics

Guitar lessons | Add/correct | Request | Top 50 tabs Artists:  A B C D E F G H I J K L M N O P Q R S T U V W X Y Z 0-9

Mine Smell Like Honey Guitar Tabs – R.E.M.

CD, Sheet music, Poster

Do you like Mine Smell Like Honey? Share with your friends now
ChordsTabsUkulele
------------------------------------------------------------------------
                MINE SMELL LIKE HONEY - REM
------------------------------------------------------------------------

Intro:
e|-0-0-0-0---0---0---0-0-0--|
B|-0-0-0-2---5---2---2-3-5--|
G|-9-6-4-2---2---2---2-2-2--|
D|-9-6-4-2---2---2---2-2-2--|
A|-7-4-2-0---0---0---0-0-0--|
E|--------------------------|


Verse:
e|-0---0---0--0--0--0----------|
B|-0---0---0---0--0--0---------|
G|-7---4---6-6--6--6--6--------|
D|-7---5---7-------------------|
A|-5---5---7-------------------|
E|-0---3---5-------------------|


Bridge to Chorus:
e|-0--0--0--0---0--0--0--0--------|
B|-0---0--0--0--0---0--0--0-------|
G|-4-4--4--4--4-2-2--2--2--2------|
D|-4------------4-------------x2--|
A|-0------------0-----------------|
E|--------------------------------|


Chorus:
e|-0---0---0------0---0---0-------|
B|-0---0---0------0---0---0-------|
G|-9---8---6------4---8---6-------|
D|-9---9---7-x3---5---9---7-------|
A|-7---9---7------5---9---7-------|
E|-0---7---5------3---7---5-------|


Guitar 2
e|-00000-0------0000000000000000---|
B|-99979-7------5554444455544444---|
G|--------9-8-6-4444444444444444---|

 
Middle Bridge:
Guitar 1
e|-0--0--0--0---0--0--0--0---0--0--0--0---0--3--0-|
B|-0---0--0--0--0---0--0--0--0---0--0--0--3---3-2-|
G|-4-4--4--4--4-2-2--2--2--2-4-4--4--4--4-2-2---2-|
D|-4------------4------------4------------0-----2-|
A|----------------------------------------------0-|
E|----------------------------------------------0-|


Guitar 2
e|-14--------14-7----------7-14--------14-10-9---|
B|--0---------0-0----------0--0---------0--0-0---|

Guitar 1
e|-0--0--0--0---0--0--0--0---0-|
B|-0---0--0--0--0---0--0--0--5-|
G|-4-4--4--4--4-2-2--2--2--2-4-|
D|-4------------4------------0-|
A|-----------------------------|
E|-----------------------------|


Guitar 2
e|-14--------14-7----------7-7-|
B|--0---------0-0----------0-5-|


Guitar 3
e|--------------------------19-|
B|--------------------------19-|


End:
e|-0---0---0---0---|
B|-0---0---0---0---|
G|-4---8---8---6---|
D|-5---9---9---4---|
A|-5---9---9---0---|
E|-3---7---7---0---|





Comments


Popular R.E.M. tabs & chords
Funtime 1 Bass Tabs
Losing My Religion Live 1 Bass Tabs
Old Man Kensey Bass Tabs
Begin The Begin Chords
I Walked With A Zombie Chords
Walk Unafraid Chords
It Happened Today Tabs
Memphis Train Blues Tabs
Radio Song Intro Tabs
New Test Leper Ukulele


Song lyrics



↑ Back to top | Tablatures and chords are parodies/interpretations of the original songs. You may use it for private study, scholarship, research or language learning purposes only
© 2014 AZChords.com Contact us | Privacy policy | DMCA | Add/correct tabs | Request tabs | Top 50 tabs