» » »

R.E.M., Losing My Religion Bass tabs (ver.5)

Artists:  A B C D E F G H I J K L M N O P Q R S T U V W X Y Z # 

Losing My Religion Bass tabs (ver.5)

R.E.M. Tabs
 Rating:
4/5 (4 votes)
Losing My Religion lessons Tabs too difficult? Try these video lessons and learn fast
                [INTRO]
           F        F        Am       Am       F        F        Am       G
G:--------|--------|----0-0-|2-------|--------|--------|----0-0-|--------|--------|
D:----020-|3--333-3|-0-0----|--------|---0--2-|3--330-3|-0-0----|--------|--------|
A:-------0|--------|--------|----2---|3-------|--------|--------|0-------|--------|
E:--------|--------|--------|--------|--------|--------|--------|--------|3-------|

[VERSE]
         Am         Am         Em                 Em          
     Oh, life    is bigger       It's bigger than you
              Am      Am                               Em
  And you are not me           The lengths that I will go to
      Em               Am    Am    Em                    Dm
  The distance in your eyes         Oh no, I've said too much
           G        G
  I set it up         That's me in the ...

  Am       Am       Em       Em       Am       Am       Em       Em  
G:--------|--------|--------|--------|--------|--------|--------|--------|
D:--------|------0-|2---4---|2-------|--------|------0-|2---4---|2-------|
A:0--00---|0---0---|--------|--------|0--00---|0---0---|--------|--------|
E:--------|--------|--------|----3-3-|--------|--------|--------|----33--|

  Am       Am       Em       Em       Dm       Dm       G        G
G:--------|--------|--------|--------|--------|--------|0--00---|0-------|
D:--------|------0-|2---4---|2---2-1-|0--00---|0---0-0-|--------|--------|
A:0--00---|0---0---|--------|---2----|--------|--------|--------|--------|
E:--------|--------|--------|--------|--------|--------|--------|--------|

[CHORUS]
  Am        Am                   Em
  Corner        That's me in the spotlight
  Em          Am       Am                  Em           Em
  Losing my religion             Trying to keep up with you
        Am                  Am       Em              Em       Dm     Dm
  And I don't know if I can do it        Oh no, I've said too much
                  G           G
  I haven't said enough     I thought that I heard you ...
  F                 F                        Am        Am
  Laughing        I thought that I heard you sing
    F                 F            Am      G
  I think I thought I saw      you try

  Am       Am       Em       Em       Am       Am       Em       Em  
G:--------|--------|--------|--------|--------|--------|--------|--------|
D:--------|------0-|2---4---|2-------|--------|------0-|2---4---|2-------|
A:0--00---|0---0---|--------|--------|0--00---|0---0---|--------|--------|
E:--------|--------|--------|----3-3-|--------|--------|--------|----3-3-|

  Am       Am       Em       Em       Dm       Dm       G        G
G:--------|--------|--------|--------|--------|--------|0--00---|0-------|
D:--------|------0-|2---4---|2---2-1-|0--00---|0---0-0-|--------|----020-|
A:0--00---|0---0---|--------|---2----|--------|--------|--------|-------0|
E:--------|--------|--------|--------|--------|--------|--------|--------|

  F        F        Am       Am       F        F        Am       G      
G:--------|----0-0-|2-------|--------|--------|----0-0-|--------|--------|
D:3--330-3|-0-0----|--------|---0--2-|3--330-3|-0-0----|--------|--------|
A:--------|--------|----2---|3-------|--------|--------|0-------|--------|
E:--------|--------|--------|--------|--------|--------|--------|3-------|

[VERSE]
           Am      Am                 Em           Em             Am       Am
     Every whisper    of every waking hour     I'm choosing my confessions
            Em             Em             Am                    Am
  Trying to keep an eye on you     Like a hurt lost and blinded fool, fool
  Em             Em       Dm    Dm              G     G
     Oh no, I've said too much         I set it up

  Am       Am       Em       Em       Am       Am       Em       Em  
G:--------|--------|--------|--------|--------|--------|--------|--------|
D:--------|------0-|2---4---|2-------|--------|------0-|2---4---|2-------|
A:0--00---|0---0---|--------|--------|0--00---|0---0---|--------|--------|
E:--------|--------|--------|----0-3-|--------|--------|--------|----0-3-|

  Am       Am       Em       Em       Dm       Dm       G        G
G:--------|--------|--------|--------|--------|--------|0--00---|0-------|
D:--------|------0-|2---4---|2---2-1-|0--00---|0---0-0-|--------|--------|
A:0--00---|0---0---|--------|---2----|--------|---0----|--------|--------|
E:--------|--------|--------|--------|--------|--------|--------|--------|

[VERSE]
           Am       Am             Em                Em
  Consider this, consider this       The hint of the century
           Am           Am             Em               Em
  Consider this     the slip      That brought me to my knees failed
  Am                Am                Em           Em
  What if all these fantasies   Come     flailing around?
           Dm     Dm       G        G
  Now I've said        too much           I thought that I heard you ...
  F              F                        Am     Am
  Laughing     I thought that I heard you sing
    F                 F          Am      G
  I think I thought I saw    you try

  Am       Am       Em       Em       Am       Am       Em       Em  
G:--------|--------|--------|--------|--------|--------|--------|--------|
D:--------|------0-|2---4---|2-------|--------|------0-|2---4---|2-------|
A:0--00---|0---0---|--------|--------|0--00---|0---0---|--------|--------|
E:--------|--------|--------|----0-3-|--------|--------|--------|----0-3-|

  Am       Am       Em       Em       Dm       Dm       G        G
G:--------|--------|--------|--------|--------|--------|0--00---|0-------|
D:--------|------0-|2---4---|2---2-1-|0--00---|0---0-0-|--------|----020-|
A:0--00---|0---0---|--------|---2----|--------|--------|--------|-------0|
E:--------|--------|--------|--------|--------|--------|--------|--------|

  F        F        Am       Am       F        F        Am       G      
G:--------|----0-0-|2-------|--------|--------|----0-0-|--------|--------|
D:3--330-3|-0-0----|--------|---0--2-|3--330-3|-0-0----|--------|--------|
A:--------|--------|----2---|3-------|--------|--------|0-------|--------|
E:--------|--------|--------|--------|--------|--------|--------|3-------|

[BRIDGE]
  Am      G      F      G
  ...     ...    ...    ...
      C               D            C               D
  But that was just a dream        That was just a dream

  Am       G        F        G        C        D        C        D       
G:--------|--------|--------|--------|--------|--------|--------|--------|
D:--------|--------|--------|--------|--------|0-------|--------|0-------|
A:0-------|--------|--------|--------|3-------|--------|3-------|--------|
E:--------|3-------|1-------|3-------|--------|--------|--------|--------|

[CHORUS]
                   Am      Am                    Em
  That's me in the corner       That's me in the spotlight
  Em            Am     Am               Em           Em
  Losing my religion          Trying to keep up with you
        Am                  Am         Em            Em       Dm
  And I don't know if I can do it        Oh no, I've said too much
                  G          G
  I haven't said enough    I thought that I heard you ...
  F                F                        Am        Am
  Laughing       I thought that I heard you sing
    F                 F         Am       Am
  I think I thought I saw  you  try
      F               F          Am          Am
  But that was just a dream      Try, cry,   why,   try
  F               F                Am            G      
  That was just a dream,    just a dream, just a dream, dream

  Am       Am       Em       Em       Am       Am       Em       Em  
G:--------|--------|--------|--------|--------|--------|--------|--------|
D:--------|------0-|2---4---|2-------|--------|------0-|2---4---|2-------|
A:0--00---|0---0---|--------|--------|0--00---|0---0---|--------|--------|
E:--------|--------|--------|----0-3-|--------|--------|--------|----0-3-|

  Am       Am       Em       Em       Dm       Dm       G        G
G:--------|--------|--------|--------|--------|--------|0--00---|0-------|
D:--------|------0-|2---4---|2---2-1-|0--00---|0---0-0-|--------|----020-|
A:0--00---|0---0---|--------|---2----|--------|--------|--------|-------0|
E:--------|--------|--------|--------|--------|--------|--------|--------|

  F        F        Am       Am       F        F        Am       Am     
G:--------|----0-0-|2-------|--------|--------|----0-0-|2-------|--------|
D:3--330-3|-0-0----|--------|---0--2-|3--330-3|-0-0----|--------|---0--2-|
A:--------|--------|----2---|3-------|--------|--------|----2---|3-------|
E:--------|--------|--------|--------|--------|--------|--------|--------|

  F        F        Am       Am       F        F        Am       G      
G:--------|----0-0-|2-------|--------|--------|----0-0-|--------|--------|
D:3--33--3|-0-0----|--------|---0--2-|3--33--3|-0-0----|--------|--------|
A:--------|--------|----2---|3-------|--------|--------|0-------|--------|
E:--------|--------|--------|--------|--------|--------|--------|3-------|

[CODA]
  Am       Am       Am       Am       Am       Am       Am       Am (rit)      
G:--------|--------|--------|--------|--------|--------|--------|--------|
D:--------|--------|--------|--------|--------|--------|--------|--------|
A:0~~~~~~~~~~~~~~~-|0~~~~~~~~~~~~~~~-|0~~~~~~~~~~~~~~~-|0~~~~~~~~~~~~~~~~|
E:--------|-------3|--------|-------3|--------|-------3|--------|--------|
            
Submit corrections

comments powered by Disqus
↑ Back to top | R.E.M. Bass for Losing My Religion. Lyrics for acoustic guitar and electric guitar. Tablatures and chords are parodies/interpretations of the original songs. You may use it for private study, scholarship, research or language learning purposes only