» » »

R.E.M., It Happened Today Tabs (ver.1)

Artists:  A B C D E F G H I J K L M N O P Q R S T U V W X Y Z # 

It Happened Today Tabs (ver.1)

R.E.M. Tabs
Rating:
0/5 (0 votes)
It Happened Today lessons Tabs too difficult? Try these video lessons and learn fast
                ------------------------------------------------------------------------
                IT HAPPENED TODAY - REM
------------------------------------------------------------------------

Intro:
e|----------------------------------------|
B|----------------------------------------|
G|------12-----12-----12--12-----12-------|
D|-10-----10-10--10-10--10--10-10--10-10--|
A|----------------------------------------|
E|----------------------------------------|

Verse:
e|-2-2-2-0-0-0-0---2-2-2-0-3----|
B|-3-3-3-3-2-2-2---3-3-3-3-3----|
G|-2-2-2-2-2-2-2---4-4-4-4-0----|
D|-0-0-0-0-2-2-2---4-4-4-4-0----|
A|---------0-0-0---2-2-2-0-2----|
E|-----------------2-2-2-0-3----|

e|-2-2-2-0-0-0-0---0--0--0--0--0----|
B|-3-3-3-3-2-2-2---0---0--0--0--0---|
G|-2-2-2-2-2-2-2---0----0--0--0--0--|
D|-0-0-0-0-2-2-2---2-2--------------|
A|---------0-0-0---2----------------|
E|-----------------0----------------|

Chorus:
e|-3--3--3--3---0--0--0--0-----|
B|-3---3--3--3--0---0--0--0----|
G|-0----0--0--0-2----2--2--2---|
D|-2-2----------2-2------------|
A|-3------------0--------------|
E|-0---------------------------|
Mandolin
e|-0000000000000000------------------|
A|-22222222222222220000000000000000--|
D|-----------------2222222222222222--|
G|-----------------------------------|

Bridge to End:
e|-3---2---0---0------|
B|-3---3---2---2------|
G|-0---2---2---2------|
D|-0---0---2---2------|
A|-2-------0---0------|
E|-3-------0---0------|
Mandolin:
e|-3---2---0-2---5----|
A|-2---0---0-0---4----|
D|-0---0---0-0---2----|
G|-0---2---2-2---2----|

Transition Bridge:
e|-3--3--3--3---2--2--2--2---0--0--0--0---0--0--0--0---|
B|-3---3--3--3--3---3--3--3--0---0--0--0--0---0--0--0--|
G|-5-5--5--5--5-4----4--4--4-2----2--2--2-0----0--0--0-|
D|-5------------4------------2-2----------2-2----------|
A|-3------------2-------------------------2------------|
E|-3------------2-------------------------0------------|
Mandolin:
Strum/Pick first chord, jangle note
e|-0------------x------------5------------0------------|
A|-3-3333333333-2-2222222222-4-0000000000-2------------|
D|-5------------0------------2------------2-2222222222-|
G|-0------------3------------2------------0------------|
            

comments powered by Disqus
↑ Back to top | R.E.M. Tabs for It Happened Today. Lyrics for acoustic guitar and electric guitar. Tablatures and chords are parodies/interpretations of the original songs. You may use it for private study, scholarship, research or language learning purposes only