» » »

Imitation Of Life Tabs (ver.2)

Artists:  A B C D E F G H I J K L M N O P Q R S T U V W X Y Z # 

Imitation Of Life Tabs (ver.2)

R.E.M.
Rating:
0/5 (0 votes)

Hard to play? Try these video lessons and learn fast.
                This is an all chord song! here are the chords and the tab. 

The chords you will need:


   G M     |   E m     |    A m    |     C M   |    D M    | D 4    
---3--|--0---|--0---|--0---|--2---|--3
---0--|--0---|--1---|--1---|--3---|--3
---0--|--0---|--2---|--0---|--2---|--2
---0--|--2---|--2---|--3---|--0---|--0
---2--|--2---|--0---|--3---|--0---|--0
---3--|--0---|--0---|--0---|------|---


starts out

E | C 

then the chorus:

 G | E | A | C | D | D4 | (repeat)

when he is singing:

E | A | G | D | (repeat as needed)



OR THE COMPLICATED VERSION:

--0--|--0--
--0--|--1--
--0--|--0--
--2--|--3--
--2--|--3--
--0--|--0--



---3--|--0---|--0---|--0---|--2---|--3
---0--|--0---|--1---|--1---|--3---|--3
---0--|--0---|--2---|--0---|--2---|--2
---0--|--2---|--2---|--3---|--0---|--0
---2--|--2---|--0---|--3---|--0---|--0
---3--|--0---|--0---|--0---|------|---



--0--|--0--|--3--|--2--
--0--|--1--|--0--|--3--
--0--|--2--|--0--|--2--
--2--|--2--|--0--|--0--
--2--|--0--|--1--|--0--
--0--|--0--|--2--|-----
            
Hard to play? Try these video lessons and learn fast. | Correct




comments powered by Disqus
↑ Back to top | Tablatures and chords are parodies/interpretations of the original songs. You may use it for private study, scholarship, research or language learning purposes only