» » »

Harborcoat Tabs (ver.3)

Artists:  A B C D E F G H I J K L M N O P Q R S T U V W X Y Z # 

Harborcoat Tabs (ver.3)

R.E.M.
Rating:
0/5 (0 votes)

Hard to play? Try these video lessons and learn fast.
                ------------------------------------------------------------------------
                             Harborcoat - REM
------------------------------------------------------------------------
Tune down 1/2 step.

Intro/ Chorus:
E-B-A
e|--0--0-2-0-0-0----------------|
B|--0--0-0-0-2-0----------------|
G|--0--1-4-4-2-2----------------|
D|--0--2-4-4-2-2----------------|
A|--0--2-0-0-0-0----------------|
E|--0--0-0-0-0-0----------------|

Verse:
Pick last sliding chords.
e|--4-4------5-5-5---5-7-|
B|--5-5------5-5-5---5-7-|
G|--6-6-2-1--6-6-6---6-8-|
D|--6-6----2-7-7-7---7-9-|
A|--0-0------------------|
E|--0-0------------------|

Bridge to Chorus:
e|-0-0>0-0-0------5-5---5-5---5-5----|
B|-7-7>9-9-9---------5-5---5-5---5-5-|
G|-6-6>8-8-8---x3--------------------|
D|-7-7>9-9-9-------------------------|
A|-----------------------------------|
E|-----------------------------------|

Bridge 2:
Scratch barres like a madman, pick last chord.
e|-5--7-7--2-------------|
B|-5--7-9--0-------------|
G|-5--7-7--4-------------|
D|-5--7-7--4-------------|
A|-5--7-7----------------|
E|-5--7-7----------------|

Second Guitar on final Chorus:

e|---0--2-------0-----0-----0----|
B|--0--0--2-0-2h--0-2h--0-2h-----|
G|-4--4--------------------------|
D|-------------------------------|
A|-------------------------------|
E|-------------------------------|

End on:
e|-2-------------|
B|-0-------------|
G|-4-------------|
D|-4-------------|
A|---------------|
E|---------------|
            
Hard to play? Try these video lessons and learn fast. | Correct




comments powered by Disqus
↑ Back to top | Tablatures and chords are parodies/interpretations of the original songs. You may use it for private study, scholarship, research or language learning purposes only