» » »

R.E.M., Harborcoat Tabs (ver.2)

Artists:  A B C D E F G H I J K L M N O P Q R S T U V W X Y Z # 

Harborcoat Tabs (ver.2)

R.E.M. Tabs
 Rating:
4/5 (4 votes)
Harborcoat lessons Tabs too difficult? Try these video lessons and learn fast
                -----------------------------------------------------------------------------
                             Harborcoat - R.E.M.
-----------------------------------------------------------------------------

Tuning: 1/2 Step Down

Guitar 1
Intro/Chorus
e|-0-0-0-0-0-0-0-0-0-0-0-0-0-0-0-0-|
B|-5-5-5-5-7-7-7-5-5-5-5-5-5-5-5-5-|
G|-4-4-4-4-4-4-4-4-6-6-6-6-4-4-4-4-|
D|-6-6-6-6-------------------------|
A|---------------------------------|
E|---------------------------------|

Verse
e|-4-4-4-4--------5-5-5-5---5-------7-----|
B|-5-5-5-5--------5-5-5-5-----5-------7---|
G|-6-6-6-6-7-6----6-6-6-6-------6-------8-|
D|-6-6-6-6-----7--7-7-7-7-7-------9-------|
A|----------------------------------------|
E|----------------------------------------|

Verse Interlude
e|-------------------------------------------------------------|
B|-7-7-7/9--9-9--7-7-7/9--9-9--7-7-7/9--9-9-7---7---7---7------|
G|-6-6-6/8--8-8--6-6-6/8--8-8--6-6-6/8--8-8---9---9---9---9-9--|
D|-7-7-7---------7-7-7---------7-7-7---------------------------|
A|-------------------------------------------------------------|
E|-------------------------------------------------------------|

Bridge
e|-------------------------------------------------------|
B|---7-----7-----7-7-----7----7-7-----7----7-7-----7-----|
G|-----9-----9-------9-----9------9-----9------9-----9---|
D|-9-----9-----9-------9-----9------9-----9------9-----9-|
A|-------------------------------------------------------|
E|-------------------------------------------------------|

Guitar 2
Intro/Chorus
e|-0-0-0-0-0-0-0-0-4-4-4-4-4-4-4-4-5-5-5-5-5-5-5-5-5-5-5-5-5-5-5-5-|
B|-0-0-0-0-0-0-0-0-4-4-4-4-4-4-4-4-5-5-5-5-5-5-5-5-5-5-5-5-5-5-5-5-|
G|-1-1-1-1-1-1-1-1-4-4-4-4-4-4-4-4-6-6-6-6-6-6-6-6-6-6-6-6-6-6-6-6-|
D|-2-2-2-2-2-2-2-2-6-6-6-6-6-6-6-6-7-7-7-7-7-7-7-7-7-7-7-7-7-7-7-7-|
A|-2-2-2-2-2-2-2-2-6-6-6-6-6-6-6-6-7-7-7-7-7-7-7-7-7-7-7-7-7-7-7-7-|
E|-0-0-0-0-0-0-0-0-4-4-4-4-4-4-4-4-5-5-5-5-5-5-5-5-5-5-5-5-5-5-5-5-|

Verse
e|-----------------5-5-5-5--5-5-5-5-7-7-7-7-|
B|-5-5-5-5-9-9-9-9-5-5-5-5--5-5-5-5-7-7-7-7-|
G|-6-6-6-6-9-9-9-9-6-6-6-6--6-6-6-6-8-8-8-8-|
D|-6-6-6-6-9-9-9-9-7-7-7-7--7-7-7-7-9-9-9-9-|
A|-4-4-4-4-7-7-7-7-7-7-7-7--7-7-7-7-9-9-9-9-|
E|-----------------5-5-5-5--5-5-5-5-7-7-7-7-|

Verse Interlude
e|-2-2-2/4--4-4--2-2-2/4--4-4--2-2-2/4--4-4--2-2-2-2-2-2-2-2-2-2-2-2-2-2-2-2|
B|-2-2-2/4--4-4--2-2-2/4--4-4--2-2-2/4--4-4--2-2-2-2-2-2-2-2-2-2-2-2-2-2-2-2|
G|-2-2-2/4--4-4--2-2-2/4--4-4--2-2-2/4--4-4--2-2-2-2-2-2-2-2-2-2-2-2-2-2-2-2|
D|-4-4-4/6--6-6--4-4-4/6--6-6--4-4-4/6--6-6--4-4-4-4-4-4-4-4-4-4-4-4-4-4-4-4|
A|-4-4-4/6--6-6--4-4-4/6--6-6--4-4-4/6--6-6--4-4-4-4-4-4-4-4-4-4-4-4-4-4-4-4|
E|-2-2-2/4--4-4--2-2-2/4--4-4--2-2-2/4--4-4--2-2-2-2-2-2-2-2-2-2-2-2-2-2-2-2|

End on
e|-2-|
B|-0-|
G|-1-|
D|-2-|
A|-2-|
E|-0-|
            
Submit corrections

comments powered by Disqus
↑ Back to top | R.E.M. Tabs for Harborcoat. Lyrics for acoustic guitar and electric guitar. Tablatures and chords are parodies/interpretations of the original songs. You may use it for private study, scholarship, research or language learning purposes only