» » »

R.E.M., Final Straw Bass tabs (ver.1)

Artists:  A B C D E F G H I J K L M N O P Q R S T U V W X Y Z # 

Final Straw Bass tabs (ver.1)

R.E.M. Tabs
 Rating:
4/5 (4 votes)
Final Straw lessons Tabs too difficult? Try these video lessons and learn fast
                
Not an intensely entertaining song, but powerful in it's message.
Comments and corrections always welcome.

Tuning is standard
/ = Slide up
\ = Slide down
h = Hammer


Verse 1
"As I raise my head..."
  1   +   2   +   3   +   4   +    1   +   2   +   3   +   4   +   
G|--------------------------------|----------------------------|
D|--------------------------------|------------7---5-------7---|
A|--------------------------------|5---------------------------|
E|------------------------------5-|----------------------------|

G|7-------------------------------|----------------------------|
D|--------------------------------|------------7---5-------7---|
A|----------------5---------------|5---------------------------|
E|------------------------------5-|----------------------------|

G|7-------------------------------|----------------------------|
D|--------------------------------|------------7---5-------7---|
A|----------------5---------------|5---------------------------|
E|------------------------------5-|----------------------------|

G|7-------------------------------|----------------------------|
D|--------------------------------|------------7---5-------7---|
A|----------------5---------------|5---------------------------|
E|------------------------------5-|----------------------------|

G|7-------------------------------|--------------------------------|
D|--------------------------------|--------------------------------|
A|----------------5-----------\-0-|3-------3---3-0---5---5-5-----0-|
E|--------------------------------|--------------------------------|

G|--------------------------------|--------------------------------|
D|--------------------------------|--------------------------------|
A|3-----0-3---0---5-------------0-|3-----0-3---3-0---5---5-5-----7-|
E|--------------------------------|--------------------------------|

G|--------------------------------|--------------------------------|
D|------------0-------0---2---3---|0-------------------------------|	
A|0---2---3-------3---------------|----------------5-------------3*|
E|--------------------------------|--------------5-----------------|
  Repeat From Beginning
  * = Second Time Only

"Now, I don't believe..."
  1   +   2   +   3   +   4   +    1   +   2   +   3   +   4   +   
G|--------------------------------|--------------------------------|
D|--3-----3---3-5-----------------|3-------3---5-------------------|
A|------3-----------5-----5-----3-|------3---------5-------------3-|
E|----------------------5---------|--------------------------------|

G|--------------------------------|--------------------------------|
D|--3-----3---3/5-----------------|------------0-------0---2---3---|
A|------3-----------5-----5-----5-|0---2---3-------3---------------|
E|----------------------5---------|--------------------------------|

G|--------------------------------|----------------------------|
D|0-------------------------------|------------7---5-------7---|
A|----------------5---------------|5---------------------------|
E|--------------5---------------5-|----------------------------|

G|7-------------------------------|----------------------------|
D|--------------------------------|------------7---5-------7---|
A|----------------5---------------|5---------------------------|
E|------------------------------5-|----------------------------|

G|7-------------------------------|----------------------------|
D|--------------------------------|------------7---5-------7---|
A|----------------5---------------|5---------------------------|
E|------------------------------5-|----------------------------|

G|7-------------------------------|----------------------------|
D|--------------------------------|------------7---5-------7---|
A|----------------5---------------|5---------------------------|
E|------------------------------5-|----------------------------|


"For this fear will not..."
  1   +   2   +   3   +   4   +    1   +   2   +   3   +   4   +   
G|7-------------------------------|--------------------------------|
D|--------------------------------|--------------------------------|
A|----------------5-----------\-0-|3-----3-3---3-0---5---5-5-----0-|
E|--------------------------------|--------------------------------|

G|--------------------------------|--------------------------------|
D|--------------------------------|--------------------------------|
A|3-----0-3---0---5-------------0-|--3---3-3---3-0---5---5-5-----7-|
E|--------------------------------|--------------------------------|

G|--------------------------------|--------------------------------|
D|------------0-------0---2---3---|0-------------------------------|
A|0---2---3-------3---------------|----------------5-----------\-0-|
E|--------------------------------|--------------5-----------------|

G|--------------------------------|--------------------------------|
D|--------------------------------|--------------------------------|
A|3-----3-3---3-0---5---5-5-----0-|3-----0-3---0---5-------5-----0-|
E|--------------------------------|--------------------------------|

G|--------------------------------|--------------------------------|
D|--------------------------------|------------0-------0---2---3---|
A|3-----3-3---3-0---5---5-5----5h7p0---2---3-------3---------------|
E|--------------------------------|--------------------------------|

G|--------------------------------|--------------------------------|
D|0-------0-----------------------|--------------------------------|
A|----------------5-----------3-2-|0-------0---2---3-------3---0---|
E|--------------5-----------------|----0---------------3-----------|

G|--------------------------------|--------------------------------|
D|--------------------------------|--------------------------------|
A|5---------------5-----------3-2-|0-------0---2---3-------3---0---|
E|------------5-7-----------------|----0---------------3-----------|

G|--------------------------------|--------------------------------|
D|--------------------------------|--------------------------------|
A|5---------------5---------------|5---------------5-----------5---|
E|--------------5---------------5-|--------------5-----------------|
            
Submit corrections

comments powered by Disqus
↑ Back to top | R.E.M. Bass for Final Straw. Lyrics for acoustic guitar and electric guitar. Tablatures and chords are parodies/interpretations of the original songs. You may use it for private study, scholarship, research or language learning purposes only