» » »

R.E.M., Everybody Hurts Bass tabs (ver.1)

Artists:  A B C D E F G H I J K L M N O P Q R S T U V W X Y Z # 

Everybody Hurts Bass tabs (ver.1)

R.E.M. Tabs
 Rating:
4/5 (4 votes)
Everybody Hurts lessons Tabs too difficult? Try these video lessons and learn fast
                [INTRO]
  D        G        D        G        
G:--------|--------|--------|--------|
D:0---0---|--------|0---0---|--------|
A:--------|--------|--------|--------|
E:--------|3---3---|--------|3---3---|

[VERSE]
  D                          G          D                             G   
      When your day is long     and the night     the night is yours alone
  D                                G                D                  G
      When you're sure you've had enough    of this life     well hang on

  D        G        D        G        D        G        D        G        
G:--------|--------|--------|--------|--------|--------|--------|--------|
D:0---0---|--------|0---0---|--------|0---0---|--------|0---0---|--------|
A:--------|--------|--------|--------|--------|--------|--------|--------|
E:--------|3---3---|--------|3---3---|--------|3---3---|--------|3---3-2-|

[CHORUS]
  Em                    A      Em            A       
     Don't let yourself go         Everybody cries
  Em           A               D       G   
     Everybody hurts       sometimes

  Em       A     ~3~ Em       A     ~3~ Em       A        D        G
G:--------|---------|--------|---------|--------|--------|--------|--------|
D:----22-4|--------0|2---22-4|--------0|2---22-4|--------|0---00-0|--------|
A:---2----|0--00--2-|---2----|0--00--2-|---2----|0--00   |---0----|-------0|
E:0-------|---------|--------|---------|--------|--------|--------|3--33---|

[VERSE]
                           D          G                            D       
  Sometimes everything is wrong            Now it's time to sing along
                          G          D                             G
  When your day is night alone            If you feel like letting go
                    (hold on)  (hold on)                     (hold on)
  D                              G               D                   G
     If you think you've had too much    Of this life,     Well hang on

  |-- Repeat Once --|
   D        G         D        G        D        G        D        G        
G:|--------|--------||--------|--------|--------|--------|--------|--------|
D:|0---00-0|--------||0---00-0|--------|0---00-0|--------|0---00-0|--------|
A:|---0----|-------0||---0----|-------0|---0----|-------0|---0----|--------|
E:|--------|3--33---||--------|3--33---|--------|3--33---|--------|3--33-2-|

[CHORUS]
  Em             A         Em                       A     
       Everybody hurts         Take comfort in your friends
  Em             A
       Everybody hurts 

  Em       A     ~3~ Em       A     ~3~ Em       A     ~3~   
G:--------|---------|--------|---------|--------|---------|
D:----22-4|--------0|2---22-4|--------0|2---22-4|---------|
A:---2----|0-000--2-|---2----|0-000--2-|---2----|0-000-0--|
E:0-------|---------|--------|---------|--------|-------43|

[BRIDGE]
  F#                   Bm        F#      Bm     F#                    Bm
     Don't throw your hand       Ohhh    Do         Don't throw your hand
  C                             G           C                       Am
     When you feel like you're alone        No, no, no, you're not alone

  F#       Bm    ~3~ F#       Bm    ~3~ F#       Bm    ~3~   
G:--------|---------|--------|---------|--------|---------|
D:--------|---------|--------|---------|--------|---------|
A:----4-4-|2-222--0-|----4-4-|2-222--0-|----4-4-|2-222-202|
E:2--2----|--------4|2--2----|--------4|2--2----|---------|

  C        G     ~3~ C        Am
G:--------|---------|--------|--------|
D:--------|---------|--------|--------|
A:3---3-33|-------02|3---3-2-|0--00   |
E:---3----|3-333-3--|---3----|--------|

[VERSE]
  D                        G                D                               G
     If you're on your own    In this life     The days and nights are long
  D                                G                D                G
     When you think you've had too much     Of this life     To hang on

  D        G        D        G        D        G        D        G        
G:--------|--------|--------|--------|--------|--------|--------|--------|
D:--------|--------|--------|--------|--------|--------|--------|--------|
A:--------|--------|--------|--------|--------|--------|--------|--------|
E:--------|--------|--------|--------|--------|--------|--------|--------|

[CHORUS]
  Em                A            Em                   A
     Well everybody hurts    Sometimes      Everybody cries   
  Em           A            D         G                D            G
     Everybody hurts    Sometimes        But everybody hurts    Sometimes

                                                               |-- Repeat Once --|
  Em       A     ~3~ Em       A     ~3~ Em       A        N/C   D        G
G:--------|---------|--------|---------|--------|--------|----||--------|--------||
D:----22-4|--------0|2---22-4|--------0|2---22-4|--------|----||0---00-0|--------||
A:---2----|0--00--2-|---2----|0--00--2-|---2----|0--00   |----||---0----|-------0||
E:0-------|---------|--------|---------|--------|--------|----||--------|3--33---||
                                                          2
                                                          beats

[CODA]
     D            G         D            G         D             G 
  So hold on    Hold on     Hold on    Hold on     Hold on     Hold on
                                                                (Ahhhhhhhhh)
  D               G                  D            G      
  Hold on       Hold on    Everybody hurts      
 (Na na na na     na na na na)
  D               G                       D              G
  ...                        You are not alone
 (Na na na na     na)
  D               G         D            G         D             G

 (Repeat and Fade)
  D        G        D        G        D        G        D        G        
G:--------|--------|--------|--------|--------|--------|--------|--------|
D:0---00-0|--------|0---00-0|--------|0---00-0|--------|0---00-0|--------|
A:---0----|-------0|---0----|-------0|---0----|-------0|---0----|-------0|
E:--------|3--33---|--------|3--33---|--------|3--33---|--------|3--33---|
            
Submit corrections

comments powered by Disqus
↑ Back to top | R.E.M. Bass for Everybody Hurts. Lyrics for acoustic guitar and electric guitar. Tablatures and chords are parodies/interpretations of the original songs. You may use it for private study, scholarship, research or language learning purposes only