» » »

R.E.M., E Bow The Letter Tabs (ver.2)

Artists:  A B C D E F G H I J K L M N O P Q R S T U V W X Y Z # 

E Bow The Letter Tabs (ver.2)

R.E.M. Tabs
Rating:
0/5 (0 votes)
E Bow The Letter lessons Tabs too difficult? Try these video lessons and learn fast
                E-Bow the Letter by microwaave!

VERSE chords
C :X32010
G :320033
Em:022000
Bm:224432

then
C :X32010
G :320033
Em:022000

then repeat


CHORUS chords
D :XX0232
Em:022000
G :320033
 repeat


First VERSE
     C
Look up, what do you see?
 G
All of you and all of me
    Em
Fluorescent and starry
 Bm
Some of them, they surprise

C                          G
   The bus ride, I went to write this, 4:00 a.m.
     Em
This    letter

                            C
Fields of poppies, little pearls
 G                               Em
All the boys and all the girls sweet-toothed
                Bm
Each and every one a little scary

C     G                    Em
          I said your name

                                 C
I wore it like a badge of teenage film stars
      G                     Em
Hash bars, cherry mash and tinfoil tiaras
  Bm
Dreaming of Maria Callas

C   G
   Whoever she is
      Em
This fame thing, I don't get it

    C                         G
I wrap my hand in plastic to try to look through it
 Em                    Bm
Maybelline eyes and girl-as-boy moves

C                G
 I can take you far
      Em
This star thing, I don't get it



CHORUS
               D     Em  G
               D     Em  G
I'll take you over, there
               D     Em  G
I'll take you over, there

  D             
Aluminum, tastes like fear
  Em            G
Adrenaline, it pulls us near


---
Continue this chord progression

------------------------------------

Picking Style:

Play with a pick or finger
While fretting the entire chord

VERSE

C :X32010
G :320033
Em:022000
Bm:224432

    C chord    G Chord   Em Chord   Bm Chord
e||-----0----------3---------0----------2-------||
b||-------1----------3---------0----------3-----||
G||---0----------0---------0----------4---------||
D||---------------------------------------------||
A||-3-------------------------------2-----------||
E||------------3---------0----------------------||

    C chord    G Chord   Em Chord   
e||-----0----------3---------0--------||
b||-------1----------3---------0------||
G||---0----------0---------0----------||
D||-----------------------------------||
A||-3---------------------------------||
E||------------3---------0------------||



CHORUS

D :XX0232
Em:022000
G :320033

    D chord  repeat       Em Chord    G Chord   
e||-----3--------3------------0----------3--------||
b||-------2--------2------------0----------3------||
G||---2--------2------------0----------0----------||
D||-0--------0------------------------------------||
A||-----------------------------------------------||
E||-----------------------0----------3------------||
            

comments powered by Disqus
↑ Back to top | R.E.M. Tabs for E Bow The Letter. Lyrics for acoustic guitar and electric guitar. Tablatures and chords are parodies/interpretations of the original songs. You may use it for private study, scholarship, research or language learning purposes only