» » »

Drive Bass tabs (ver.1)

Artists:  A B C D E F G H I J K L M N O P Q R S T U V W X Y Z # 

Drive Bass tabs (ver.1)

R.E.M.
Rating:
0/5 (0 votes)

Hard to play? Try these video lessons and learn fast.
                Drive - R.E.M.

G|---------------------------------|
D|---------------------------------|
A|---5---8-7-8-5-----3-5---878-5---|
E|-----------------5---------------|



G|--------------------------------------------------|  x2
D|--------------------------------------------------|
A|---3-5--5----5-5------------------3-5---8-7-8-5---|
E|-5---------5------5-3-3--0-3-3--5-----------------|



G|-------------------------------------------------------------|
D|--------------------5-7--7--7----7---7-5---5-----------5--5--|
A|---5-7-8--8--5-8-8-----------5--5---5-5---5-5--5-----5---5-8-|
E|-5----------------------------------------------5-3----------|

G|--------------------------------------------|
D|-----------5-5------------5-5---------------|
A|7--7---7-7-----7--7---7-7-----5---8-7-8-5---|
E|------7--------------7----------------------|



G|--------------------------------------------------|  x2
D|--------------------------------------------------|
A|---3-5--5----5-5------------------3-5---8-7-8-5---|
E|-5---------5------5-3-3--0-3-3--5-----------------|



G|-------------------------------------------------------------|
D|--------------------5-7--7--7----7---7-5---5-----------5--5--|
A|---5-7-8--8--5-8-8-----------5--5---5-5---5-5--5-----5---5-8-|
E|-5----------------------------------------------5-3----------|

G|--------------------------------------------|
D|-----------5-5------------5-5---------------|
A|7--7---7-7-----7--7---7-7-----5---8-7-8-5---|
E|------7--------------7----------------------|



G|-------|
D|-------|
A|-5-5-5-|
E|-------|

G|--------------------------------------------------------------------| x2
D|-------------5-5-------------5-5---------------------------------------|
A|-3--3----3-3-----3--3----3-3-----5--5----5-5--8-7-8-5--5----5-5--8-7-8-|
E|-------3---------------3---------------5------------------5------------|

G|---------------------------------|
D|---------------3-5--5----5-5-----|
A|-3--3----3-3-5---------5-------8-|
E|-------3-------------------------|



G|---------------------------------|
D|---------------------------------|
A|---5---8-7-8-5-----3-5---878-5---|
E|-----------------5---------------|



G|--------------------------------------------------|  x2
D|--------------------------------------------------|
A|---3-5--5----5-5------------------3-5---8-7-8-5---|
E|-5---------5------5-3-3--0-3-3--5-----------------|



G|-------------------------------------------------------------|
D|--------------------5-7--7--7----7---7-5---5-----------5--5--|
A|---5-7-8--8--5-8-8-----------5--5---5-5---5-5--5-----5---5-8-|
E|-5----------------------------------------------5-3----------|

G|--------------------------------------------|
D|-----------5-5------------5-5---------------|
A|7--7---7-7-----7--7---7-7-----5---8-7-8-5---|
E|------7--------------7----------------------|



G|-------------------------------------------------------|   x2
D|-----5---------------5-5-------------5-5---------------|
A|-5-5---5-7--7----7-7-----7--7----7-7-----5---8-7-8-5---|
E|---------------7---------------7-----------------------|

G|------------------------------------|
D|------------------------------------|
A|---3-5---8-7-8-5---------3-----5----|
E|-5-----------------5----------------|
            
Hard to play? Try these video lessons and learn fast. | Correct




comments powered by Disqus
↑ Back to top | Tablatures and chords are parodies/interpretations of the original songs. You may use it for private study, scholarship, research or language learning purposes only