» » »

Discoverer Tabs (ver.1)

Artists:  A B C D E F G H I J K L M N O P Q R S T U V W X Y Z # 

Discoverer Tabs (ver.1)

R.E.M.
Rating:
0/5 (0 votes)

Hard to play? Try these video lessons and learn fast.
                ------------------------------------------------------------------------
                DISCOVERER - REM
------------------------------------------------------------------------

Verse/Intro/Bridge
Guitar 1:
e|-2---2---0---2-------|
B|-0---0---0---0-------|
G|-4---4---2---4-------|
D|-4---4---2---4-------|
A|---------------------|
E|---------------------|

Guitar 2:
e|-4-5-7-9-10h-9-10h-9-9-10h-9-5-4-5h-4-2---|
B|------------------------------------------|
G|------------------------------------------|
D|------------------------------------------|
A|------------------------------------------|
E|------------------------------------------|

Chorus:
e|---------0--0-0------0---0---0---0--|
B|---------0-0-0-0-----0---0---0---0--|
G|-3---1---8-----------4---7---7--11--|
D|-4---2---9-------x3--5---7---7---9--|
A|-4---2---9-----------5---5---5---0--|
E|-2---0---7-----------3---0---0---0--|

e|--0---0--------0---0---|
B|--0---0--------0---0---|
G|-11---4--------4---7---|
D|--9---2--------5---7---|
A|--0---0---x3---5---5---|
E|--0---0--------3---0---|
            
Hard to play? Try these video lessons and learn fast. | Correct




comments powered by Disqus
↑ Back to top | Tablatures and chords are parodies/interpretations of the original songs. You may use it for private study, scholarship, research or language learning purposes only