>
 >
Cuyahoga 2

Cuyahoga 2 Bass Tabs

R.E.M. - Cuyahoga 2 chords, tabs, tablatures, lyrics

Guitar lessons | Add/correct | Request | Top 50 tabs Artists:  A B C D E F G H I J K L M N O P Q R S T U V W X Y Z 0-9

Cuyahoga 2 Bass Tabs – R.E.M.

CD, Sheet music, Poster

Do you like Cuyahoga 2? Share with your friends now
Bass TabsBass Tabs v2Bass Tabs v3ChordsTabsUkulele
Intro
  1   +   2   +   3   +   4   +    1   +   2   +   3   +   4   +   
G|--------------------------------|--------------------------------|
D|--7-----7---------12----1212----|--9-----9---------1212--1212----|
A|5-----5-----5---10----10----10-\|7-----7-----7-/-10----10----10--|
E|--------------------------------|--------------------------------|


Verse 1
  1   +   2   +   3   +   4   +    1   +   2   +   3   +   4   +   
G|--------------------------------|--------------------------------|
D|--7-----7---------12----1212----|--9-----9---------1212--1212----| X4
A|5-----5-----5---10----10----10-\|7-----7-----7-/-10----10----10--|
E|--------------------------------|--------------------------------|


Pre-Chorus 1
  1   +   2   +   3   +   4   +    1   +   2   +   3   +   4   +   
G|--------------------------------|--------------------------------|
D|--------------------------------|--------------4-----------------|
A|7---7-5-7---5---------------5---|7-----5-5---7-------------------|
E|--------------7-------7---------|----------------------5-----7---|

G|--------------------------------|--------------------------------|
D|--------------------------------|--------------------------------|
A|7---7-5-7---5---------------5---|7---7-5-7---5-5-----------------|
E|--------------7-------7---------|--------------------------------|


Verse 2
  1   +   2   +   3   +   4   +    1   +   2   +   3   +   4   +   
G|--------------------------------|--------------------------------|
D|--7-----7---------12----1212----|--9-----9---------1212--1212----| X4
A|5-----5-----5---10----10----10-\|7-----7-----7-/-10----10----10--|
E|--------------------------------|--------------------------------|


Pre-Chorus 2
  1   +   2   +   3   +   4   +    1   +   2   +   3   +   4   +   
G|--------------------------------|--------------------------------|
D|--------------------------------|--------------4-----------------|
A|7---7-5-7---5---------------5---|7-----5-5---7-------------------|
E|--------------7-------7---------|----------------------5-----7---|

G|--------------------------------|--------------------------------|
D|--------------------------------|----------------------------7---|
A|7---7-5-7---5---------------5---|7---7-5-7---5-5---5-5---5-------|
E|--------------7-------7---------|--------------------------------|


Chorus 1
  1   +   2   +   3   +   4   +    1   +   2   +   3   +   4   +   
G|7-------------------------------|--------------7---9-9-7-9---9---|
D|7-----9-9-----1212----9-9-----7-|7-----7-7-----7---7-7-7-7---7---|
A|------7-7-----1010----7-7-----5-|5-----5-5-----------------------|
E|--------------------------------|--------------------------------|

G|7-------------------------------|--------------------------------|
D|7-----9-9-----121212--9-9-----7-|7-----9-9---------1212--1212----|
A|------7-7-----101010--7-7-----5-|5-----7-7-------10----10----10--|
E|--------------------------------|--------------------------------|


Verse 3
  1   +   2   +   3   +   4   +    1   +   2   +   3   +   4   +   
G|--------------------------------|--------------------------------|
D|--7-----7---------12----1212----|--9-----9---------1212--1212----| X2
A|5-----5-----5---10----10----10-\|7-----7-----7-/-10----10----10--|
E|--------------------------------|--------------------------------|


Pre-Chorus 3
  1   +   2   +   3   +   4   +    1   +   2   +   3   +   4   +   
G|--------------------------------|--------------------------------|
D|--------------------------------|--------------4-----------------|
A|7---7-5-7---5---------------5---|7-----5-5---7-------------------|
E|--------------7-------7---------|----------------------5-----7---|

G|--------------------------------|--------------------------------|
D|--------------------------------|----------------------------7---|
A|7---7-5-7---5---------------5---|7---7-5-7---5-5---5-5---5-------|
E|--------------7-------7---------|--------------------------------|


Chorus 2
  1   +   2   +   3   +   4   +    1   +   2   +   3   +   4   +   
G|7-------------------------------|--------------7---9-9-7-9---9---|
D|7-----9-9-----1212----9-9-----7-|7-----7-7-----7---7-7-7-7---7---|
A|------7-7-----1010----7-7-----5-|5-----5-5-----------------------|
E|--------------------------------|--------------------------------|

G|7-------------------------------|--------------------------------|
D|7-----9-9-----121212--9-9-----7-|7-----9-9---------1212--1212----|
A|------7-7-----101010--7-7-----5-|5-----7-7-------10----10----10--|
E|--------------------------------|--------------------------------|


Bridge 1
  1   +   2   +   3   +   4   +    1   +   2   +   3   +   4   +   
G|--------------------------------|--------------------------------|
D|--------------------------------|--------------------------------|
A|2-----2-----2-0-0-----0---2-0---|----------------------------0---|
E|------------------------------3-|3-3-----3---2-3-3-----3-3-------|

G|--------------------------------|--------------------------------|
D|--------------------------------|--------------------------------|
A|2-----2-----2-0-0-----0---2-0---|--------------------------------|
E|------------------------------3-|3-3-----3---2-3-3-----3-3-------|


Break 1
  1   +   2   +   3   +   4   +    1   +   2   +   3   +   4   +   
G|--------------------------------|--------------------------------|
D|--7-----7---------12----1212----|--9-----9---------1212--1212----|
A|5-----5-----5---10----10----10-\|7-----7-----7-/-10----10----10--|
E|--------------------------------|--------------------------------|


Verse 4
  1   +   2   +   3   +   4   +    1   +   2   +   3   +   4   +   
G|--------------------------------|--------------------------------|
D|--7-----7---------12----1212----|--9-----9---------1212--1212----| X2
A|5-----5-----5---10----10----10-\|7-----7-----7-/-10----10----10--|
E|--------------------------------|--------------------------------|


Pre-Chorus 4
  1   +   2   +   3   +   4   +    1   +   2   +   3   +   4   +   
G|--------------------------------|--------------------------------|
D|--------------------------------|--------------4-----------------|
A|7---7-5-7---5---------------5---|7-----5-5---7-------------------|
E|--------------7-------7---------|----------------------5-----7---|

G|--------------------------------|----------------------7/11--14-\|
D|--------------------------------|--------------------------------|
A|7---7-5-7---5---------------5---|7---7-5-7---5-5---5-5-----------|
E|--------------7-------7---------|--------------------------------|


Chorus 3
  1   +   2   +   3   +   4   +    1   +   2   +   3   +   4   +   
G|7-------------------------------|--------------7---9-9-7-9---9---|
D|7-----9-9-----1212----9-9-----7-|7-----7-7-----7---7-7-7-7---7---|
A|------7-7-----1010----7-7-----5-|5-----5-5-----------------------|
E|--------------------------------|--------------------------------|

G|7-------------------------------|--------------------------------|
D|7-----9-9-----1212----9-9-----7-|7-----9-9-----121212--1212--12--|
A|------7-7-----1010----7-7-----5-|5-----7-7-----101010--1010--10--|
E|--------------------------------|--------------------------------|

G|7-------------------------------|--------------7---9-9-7-9---9---|
D|7-----9-9-----1212----9-9-----7-|7-----7-7-----7---7-7-7-7---7---|
A|------7-7-----1010----7-7-----5-|5-----5-5-----------------------|
E|--------------------------------|--------------------------------|

G|7-------------------------------|--------------------------------|
D|7-----9-9-----1212----9-9-----7-|7-----9-9-----1212--12--12--1212|
A|------7-7-----1010----7-7-----5-|5-----7-7-----1010--10--10--1010|
E|--------------------------------|--------------------------------|

G|--------------------------------|--------------------------------|
D|--12121212--12--12--------------|--------------------------------|
A|--10101010--10--12--------------|--------------------------------|
E|--------------------------------|--------------------------------|





Comments


Popular R.E.M. tabs & chords
I Took Your Name 1 Bass Tabs
Begin The Begin Chords
Exhuming Mccarthy Chords
I Walked With A Zombie Chords
Losing My Religion 5 Chords
Turn You Inside-out Chords
I Remember California Tabs
See No Evil Tabs
Strange Currencies Tabs
At My Most Beautiful Ukulele


Song lyrics



↑ Back to top | Tablatures and chords are parodies/interpretations of the original songs. You may use it for private study, scholarship, research or language learning purposes only
© 2014 AZChords.com Contact us | Privacy policy | DMCA | Add/correct tabs | Request tabs | Top 50 tabs