>
 >
Belong 4

Belong 4 Bass Tabs

R.E.M. - Belong 4 chords, tabs, tablatures, lyrics

Guitar lessons | Add/correct | Request | Top 50 tabs Artists:  A B C D E F G H I J K L M N O P Q R S T U V W X Y Z 0-9

Belong 4 Bass Tabs – R.E.M.

CD, Sheet music, Poster

Do you like Belong 4? Share with your friends now
Bass TabsBass Tabs v2Bass Tabs v3Bass Tabs v4ChordsTabsUkulele
Standard Tuning (E, A, D, G,)	\=slide down

Hey guys this is my first tab, tried to get everything down to the right note. It 
sounds very good to me. If you’re having trouble just listen to the groove of this 
song and you will get it very easily. You probably won’t need the order of rifts 
at the bottom except for minor details, but whatever. R.E.M. rules. Cheers

OPENING SLIDE:				
G|--------||					             	
D|--------||	(lightly pluck the 7th		
A|---^----||	fret as you slide down)	
E|--12\3--||						         

BRIDGE (main groove):
G|------------||
D|------------||
A|------------||
E|--3--3-33---||

CHORUS #1
G|--------|---------------|----------------|----------------||
D|--------|---------------|----------------|----------------||
A|--------|-------------0-|-3--3-33-33-3-0-|----------------||
E|--0-1-2-|-3--3-33-33-3--|----------------|-3--3-33-33-3-0-||

CHORUS #2
G|-------0------------------|----------------|----------------|----------------||
D|----------4-2-0-----------|----------------|----------------|----------------||
A|-------------------4-2-0--|--------------0-|-3--3-33-33-3-0-|----------------||
E|--3-3---------------------|-3--3-33-33-3---|----------------|-3--3-33-33-3-0-||

CHORUS SLIDE         		                      
G|----------||			
D|----------||			
A|----------||			
E|--3/12\3--||			
					        
How to put it all together:	
OPENING SLIDE x1		
BRIDGE x14			        
*CHORUS (#1) x1		        
*BRIDGE x1	NOTE:I put stars next to the chorus bits just to give you a little  
*CHORUS (#1) x1	guide. There are four (4) chorus's in total. I
*BRIDGE x1	know it looks confusing but just listen to the groove and the 
*CHORUS SLIDE x1	melody and you may not need the guide.	
BRIDGE x8
*CHORUS (#1) x1
*BRIDGE x1
*CHORUS (#1) x1
*CHORUS (#2) x1
*BRIDGE x1
*CHORUS (#1) x1
*BRIDGE x1 
*CHORUS SLIDE x1
BRIDGE x8
*CHORUS (#1) x1
*BRIDGE x1
*CHORUS (#1) x1
*CHORUS (#2) x1
*BRIDGE x1
*CHORUS (#1) x1
*BRIDGE x1 
*CHORUS SLIDE x1
BRIDGE x8
*CHORUS (#2) x3
*BRIDGE x1
*CHORUS SLIDE x1
BRIDGE x8





Comments


Popular R.E.M. tabs & chords
Leaving New York Bass Tabs
Losing My Religion 2 Bass Tabs
So Fast, So Numb 1 Bass Tabs
Strange Currencies 1 Bass Tabs
Bittersweet Me Chords
Permanent Vacation Chords
Stumble Chords
Bad Day 2 Tabs
Oddfellows Local 151 Tabs
Skin Tight Tabs


Song lyrics



↑ Back to top | Tablatures and chords are parodies/interpretations of the original songs. You may use it for private study, scholarship, research or language learning purposes only
© 2014 AZChords.com Contact us | Privacy policy | DMCA | Add/correct tabs | Request tabs | Top 50 tabs