» » »

R.E.M., Bandwagon Tabs (ver.1)

Artists:  A B C D E F G H I J K L M N O P Q R S T U V W X Y Z # 

Bandwagon Tabs (ver.1)

R.E.M. Tabs
 Rating:
4/5 (4 votes)
Bandwagon lessons Tabs too difficult? Try these video lessons and learn fast
1
                ------------------------------------------------------------------------
                BANDWAGON - REM
------------------------------------------------------------------------

Verse
e|-0---0---1---1---0---1---1----|
B|-1---2---1---3---1---3---1----|
G|-0---0---2---3---2---3---2----|
D|-2---2---3---3---2---3---3----|
A|-3---0---3---1---0---1---3----|
E|-0---0---1---1---0---1---1----|

Verse Guitar 2
e|---8-10-12-9------8---6------6---8--8--8--8--8--|
B|-13-------------10---6---1--6---10-11-10-11-10--|
G|--------------10----7---2--7----10----------10--|
D|------------10-----8---2--8-----10----------10--|
A|------------------------------------------------|
E|------------------------------------------------|


Chorus (Picking Pattern)
e|--1--0---0-0---|
B|---1--1-3-3-3--|
G|-2--0----------|
D|---------------|
A|---------------|
E|---------------|

Chorus (Chords)
e|-1---0---0------|
B|-1---1---3------|
G|-2---0---0------|
D|-3---3---5------|
A|----------------|
E|----------------|

Middle Bridge
e|-3---0---0---2---3---0---0---2-1-3----|
B|-3---3---1---3---3---3---1---3-1-3----|
G|-0---0---0---2---0---0---0---2-2-4----|
D|-0---2---2---0---0---2---2---0-3-5----|
A|-2---2---0-------2---2---0-----3-5----|
E|-3---0---0-------3---0---0-----1-3----|

End on:
e|-0---|
B|-3---|
G|-0---|
D|-5---|
A|-0---|
E|-0---|
            
Submit corrections

comments powered by Disqus
↑ Back to top | R.E.M. Tabs for Bandwagon. Lyrics for acoustic guitar and electric guitar. 1 Tablatures and chords are parodies/interpretations of the original songs. You may use it for private study, scholarship, research or language learning purposes only