» » »

R.E.M., Auctioneer (Another Engine) Tabs (ver.1)

Artists:  A B C D E F G H I J K L M N O P Q R S T U V W X Y Z # 

Auctioneer (Another Engine) Tabs (ver.1)

R.E.M. Tabs
 Rating:
4/5 (4 votes)
Auctioneer (Another Engine) lessons Tabs too difficult? Try these video lessons and learn fast
1
                AUCTIONEER (ANOTHER ENGINE) 


Lyrics from: rem857
Main Figure (intro/verses)
  E                         A
e-------------------------------------------------------------||
B-------------------------------------------------------------||
G-------------7----------------------------------------------O||(repeat)
D---------9-------9--------14--14--14--12--11----------------O||
A-----7---------------------0---0---0---0---0-----------------||
E-0-------------------0---------------------------------------||

(During the intro and breakdown, Peter sticks to this. During the verse,
however,
he adlibs a bit and instead of hitting the second "7" of the riff, he will
substitute

Pre-chorus
 F       E5      F               E5     F       E5         F       E5
Lis-ten, lis-ten to the auc-tion-eer. A-no-ther en-gine, a-no-ther en-gine.
Chord fingerings
   F      E5
e--0-------0---|
B--0-------0---|
G--10------9---|
D--10------9---|
A--8-------7---|
E--8-------7---|

Chorus riff
e-0----0----0---0-0-0-0-0-0--------0----0----0----0--0--0--0--0--------|
B-8---10---12---5-5-5-5-5-5-etc.---8---10---12---15-15-15-15-15-etc.---|

End figure (coming out of chorus riff at end of song)
e-----------------------
B-----------------------
G-------------9---------
D---------9---9---------
A-----7-------7---------
E-0-----------0---------

LYRICS
She didn't want to get pinned down by her prior town
Get me to the train on time, here take this nickel make a dime
Take this penny and make it into a necklace when I leave
What is at the other end, I don't know another friend
Another wife, another morning spent
Listen, listen to the auctioneer
Another engine, another engine

We never wrote the reasons that I need explained
Some things are givens, and others get away
This time its for myself you call it what you may
Okay, we won't say goodbye so long, so much more
Listen to the auctioneer
Another engine, another engine

Listen to the bargain holler
Listen to the barter holler
Listen to the auctioneer

Get me to the train on time here take this nickel make a dime
Take this penny and make it into a necklace when I leave
What is at the other end, an I don't know another friend
Another wife, another morning spent
Listen to the auctioneer
Another engine, another engine

Do I stand the bargain holler?
Listen to the barter holler
Listen to the auctioneer
            
Submit corrections

comments powered by Disqus
↑ Back to top | R.E.M. Tabs for Auctioneer (Another Engine). Lyrics for acoustic guitar and electric guitar. 1 Tablatures and chords are parodies/interpretations of the original songs. You may use it for private study, scholarship, research or language learning purposes only