» » »

R.E.M., All The Best Tabs (ver.1)

Artists:  A B C D E F G H I J K L M N O P Q R S T U V W X Y Z # 

All The Best Tabs (ver.1)

R.E.M. Tabs
Rating:
0/5 (0 votes)
All The Best lessons Tabs too difficult? Try these video lessons and learn fast
                ------------------------------------------------------------------------
                ALL THE BEST - REM
------------------------------------------------------------------------

Intro/Verse
Guitar 1
e|---------0---0---0---0---|
B|---------0---0---0---0---|
G|---------4---4---7---6---|
D|---------4---4---7---x---|
A|-0-0-0-0-2---2---5---4---|
E|-2-0-2-0-0---0---0---0---|
Guitar 2
e|-777777777777777710-1099999999----|
B|-00000000000000000000000000000----|
G|----------------------------------|
D|----------------------------------|
A|----------------------------------|
E|----------------------------------|

Chorus
e|-0---0--0---0---0--0---0---0--0---0---3---|
B|-0---3---3--0---3---3--0---3---3--2---3---|
G|-1---2-2--2-1---2-2--2-1---2-2--2-2---0---|
D|-2---0-0----2---0-0----2---0-0----2---0---|
A|-2----------2----------2---------0----2---|
E|-0----------0----------0---------0----3---|

Middle Bridge
e|-0----0---0----0----0----0---|
B|-0----0---0----0----0----0---|
G|-7----9---7----9---10---12---|
D|-7---10---7---10---10---12---|
A|-5---10---5---10----8---10---|
E|-0----8---0----8----0----0---|

e|-----------------------|
B|-----------------------|
G|-7-7-5-7-7-9-----------|
D|--7-----7---8-7-10-12--|
A|---------------8-----10|
E|-----------------------|

End
Guitar 1
e|-2--|
B|-0--|
G|-4--|
D|-4--|
A|-0--|
E|-0--|

Guitar 2
e|--0---|
B|--0---|
G|-11---|
D|--9---|
A|--0---|
E|--0---|
            

comments powered by Disqus
↑ Back to top | R.E.M. Tabs for All The Best. Lyrics for acoustic guitar and electric guitar. Tablatures and chords are parodies/interpretations of the original songs. You may use it for private study, scholarship, research or language learning purposes only