» » »

Alligator Aviator Autopilot Antimatter Tabs (ver.1)

Artists:  A B C D E F G H I J K L M N O P Q R S T U V W X Y Z # 

Alligator Aviator Autopilot Antimatter Tabs (ver.1)

R.E.M.
Rating:
0/5 (0 votes)

Hard to play? Try these video lessons and learn fast.
                ------------------------------------------------------------------------
                ALLIGATOR_AVIATOR_AUTOPILOT_ANTIMATTER - REM
------------------------------------------------------------------------


Intro/ Riff
e|----------------------|
B|----------------------|
G|------0---0---0-------|
D|--7-5------0-0-0------|
A|-0---7-7-5--3----0----|
E|----------------------|

Verse
e|-5---3-5---|
B|-5---3-7---|
G|-6---4-7---|
D|-7---5-7---|
A|-7---5-5---|
E|-5---3-5---|

Bridge to Chorus
Guitar 1
e|-5---5--|
B|-5---7--|
G|-6---7--|
D|-7---7--|
A|-7---5--|
E|-5---5--|
Guitar 2
e|-0---0--|
B|-5---7--|
G|-6---7--|
D|--------|
A|--------|
E|--------|

Chorus
e|-5---7---10---12---5---3---5---7---10---12---5-|
B|-5---7---10---12---5---3---5---7---10---12---5-|
G|-6---8---11---13---6---4---6---8---11---13---6-|
D|-7---9---12---14---7---5---7---9---12---14---7-|
A|-7---9---12---14---7---5---7---9---12---14---7-|
E|-5---7---10---12---5---3---5---7---10---12---5-|

Lead
Follows E-D/A x3; G
e|----------------------------------------|
B|----------------------------------------|
G|-------------------------------5-7>9999-|
D|-7b9-7b9-7b9-7-5-7-5---5-57-5-7---------|
A|--------------------57h-7---------------|
E|----------------------------------------|

e|--------------------------8-7-8>10>12-15-12-17-|
B|--8-10-13-12-10-10b-8-11-9---------------------|
G|-9-9-----------------10------------------------|
D|-----------------------------------------------|
A|-----------------------------------------------|
E|-----------------------------------------------|

e|-15-12-10-12b-10-8-10-12h-10-8-10p-7-8p-7-5-3-5---0--|
B|--------------------------------------------------5--|
G|-----------------------------------------------------|
D|-----------------------------------------------------|
A|-----------------------------------------------------|
E|-----------------------------------------------------|

End on A.
            
Hard to play? Try these video lessons and learn fast. | Correct




comments powered by Disqus
↑ Back to top | Tablatures and chords are parodies/interpretations of the original songs. You may use it for private study, scholarship, research or language learning purposes only