>
 >
Bite My Tongue

Bite My Tongue Guitar Tabs

Relient K - Bite My Tongue chords, tabs, tablatures, lyrics

Guitar lessons | Add/correct | Request | Top 50 tabs Artists:  A B C D E F G H I J K L M N O P Q R S T U V W X Y Z 0-9

Bite My Tongue Guitar Tabs – Relient K

CD, Sheet music, Poster

Do you like Bite My Tongue? Share with your friends now
Bass TabsTabs
Relient K
Five Score and Seven Years Ago

Guitar 1 (E A D G B E)-Distorted, Reverb w/ a SLIGHT delay effect
Guitar 2 (E A D G B E)-Distorted

First Tab WOO!

NOTE: The C#5 chord sounds a lot lower than just the regular chord... I'm not sure, it 
like its a C#5 chord with a G# root. I'm not sure at the moment so I'll just leave it as 
basic chord. 4466xx

Intro:

Guitar 1: All of Guitar 1 Palm Muted for Intro
E|--------------------------------|----------------------------------|
B|---14--14--14--14--14--14--14---|---13--13--13--13--13--13--13--13-|
G|-13--13--13--13--13--13--13--13-|-13--13--13--13--13--13--13--13---|
D|--------------------------------|----------------------------------|
A|--------------------------------|----------------------------------|
E|--------------------------------|----------------------------------|
PM* * * * * * * * * * * * * * * * * * * * * * * * * * * * * * * * * *


Guitar 1
E|------------------------------------------------|-------------------------|
B|---14--14--14--14--14--14--14--14--14--14--14---|-16--16--16--16--16--16--|
G|-13--13--13--13--13--13--13--13--13--13--13--13-|---13--13--13--13--13--13|
D|------------------------------------------------|-------------------------|
A|------------------------------------------------|-------------------------|
E|------------------------------------------------|-------------------------|
 | F#5                      F+                      G#5
E|------------------------------------------------|-------------------------|
B|-Guitar 2---------------------------------------|-------------------------|
G|------------------------------------------------|-------------------------|
D|-4-4-4-4-4-4-4-4-4-4-4-4--3-3-3-3-3-3-3-3-3-3-3-|-6-6-6-6-6-6-6-6-6-6-6-6-|
A|-4-4-4-4-4-4-4-4-4-4-4-4--4-4-4-4-4-4-4-4-4-4-4-|-6-6-6-6-6-6-6-6-6-6-6-6-|
E|-2-2-2-2-2-2-2-2-2-2-2-2--1-1-1-1-1-1-1-1-1-1-1-|-4-4-4-4-4-4-4-4-4-4-4-4-|


Guitar 1
E|--------------------------------|----------------------------------|
B|---14--14--14--14--14--14--14---|---13--13--13--13--13--13--13--13-|
G|-13--13--13--13--13--13--13--13-|-13--13--13--13--13--13--13--13---|
D|--------------------------------|----------------------------------|
A|--------------------------------|----------------------------------|
E|--------------------------------|----------------------------------|
 |Guitar 2 C#5                      G#5
e|--------------------------------|----------------------------------|
B|--------------------------------|----------------------------------|
G|-6-6-6-6-6-6-6-6-6-6-6-6-6-6-6--|----------------------------------|
D|-6-6-6-6-6-6-6-6-6-6-6-6-6-6-6--|-6-6-6-6-6-6-6-6-6-6-6-6-6-6-6-6--|
A|-4-4-4-4-4-4-4-4-4-4-4-4-4-4-4--|-6-6-6-6-6-6-6-6-6-6-6-6-6-6-6-6--|
E|--------------------------------|-4-4-4-4-4-4-4-4-4-4-4-4-4-4-4-4--|

Guitar 1
E|------------------------------------------------|-------------------------|
B|---14--14--14--14--14--14--14--14--14--14--14---|-16--16--16--16--16--16--|
G|-13--13--13--13--13--13--13--13--13--13--13--13-|--13--13--13--13--13--13-|
D|------------------------------------------------|-------------------------|
A|------------------------------------------------|-------------------------|
E|------------------------------------------------|-------------------------|
 | F#5                      F+                      G#5
E|------------------------------------------------|-------------------------|
B|-Guitar 2---------------------------------------|-------------------------|
G|------------------------------------------------|-------------------------|
D|-4-4-4-4-4-4-4-4-4-4-4-4--3-3-3-3-3-3-3-3-3-3-3-|-6-6-6-6-6-6-6-6-6-6-6-6-|
A|-4-4-4-4-4-4-4-4-4-4-4-4--4-4-4-4-4-4-4-4-4-4-4-|-6-6-6-6-6-6-6-6-6-6-6-6-|
E|-2-2-2-2-2-2-2-2-2-2-2-2--1-1-1-1-1-1-1-1-1-1-1-|-4-4-4-4-4-4-4-4-4-4-4-4-|


Verse:
[Part 1] Just Bass Guitar
G|---------------------------------------------------------------------|
D|---------------------------------------------------------------------|
A|-4-4-4-4-4-4-4-4-4-4-4-4-4-4-4-4/1-1-1-1-1-1-1-1---------------------|
E|-------------------------------------------------2-2-2-2-2-2-2-2-2-2-|X2

[Part 2]
Guitar 1
e|-----------------------------------------------------------|
B|-o-13-13/14141414----13-13-13-13-------------------------o-|
G|---12-12/13131313----13-13-13-13--13-13-13-13-13-13-13-13--|
D|---10-10/10101010----10-10-10-10--10-10-10-10-10-10-10-10--|
A|-o-------------------------------------------------------o-|
E|-----------------------------------------------------------|
Guitar 2                                                     |
e|-----------------------------------------------------------|
B|-o-------------------------------------------------------o-|
G|---5--5/6--6--6--6---5--5--5--5----------------------------|
D|---5--5/6--6--6--6---6--6--6--6---6--6--6--6--6--6--6--6---|
A|-o-3--3/4--4--4--4---4--4--4--4---4--4--4--4--4--4--4--4-o-|
E|-----------------------------------------------------------|

Pre Chorus:
Guitar 1, 2, or Both
    F#5            G#5          Bb5
e|--------------------------------------------------------|
B|-o----------------------------------------------------o-|
G|--------------------------------------------------------|
D|---4-4-4-4-4-4-4/6-6-6-6-6-6-6/8-8-8-8-8-8-8-8-8-8-8/---|
A|-o-4-4-4-4-4-4-4/6-6-6-6-6-6-6/8-8-8-8-8-8-8-8-8-8-8/-o-|
E|---2-2-2-2-2-2-2/4-4-4-4-4-4-4/6-6-6-6-6-6-6-6-6-6-6/---|
PM   * * * * * * * * * * * * * * * * * * * * * * * * slide back down

*Second time, start to release on the PM on the Bb5, No need to stress the sliding, it's 
for flow

e|--------------------------------------------------------|
B|-o----------------------------------------------------o-|
G|--------------------------------------------------------|
D|---4-4-4-4-4-4-4/6-6-6-6-6-6-6/8-8-8-8-8-8-8-8-8-8-8/---|
A|-o-4-4-4-4-4-4-4/6-6-6-6-6-6-6/8-8-8-8-8-8-8-8-8-8-8/-o-|
E|---2-2-2-2-2-2-2/4-4-4-4-4-4-4/6-6-6-6-6-6-6-6-6-6-6/---|

Chorus:
Guitar 1
E|--------------------------------|----------------------------------|
B|---14--14--14--14--14--14--14---|---13--13--13--13--13--13--13--13-|
G|-13--13--13--13--13--13--13--13-|-13--13--13--13--13--13--13--13---|
D|--------------------------------|----------------------------------|
A|--------------------------------|----------------------------------|
E|--------------------------------|----------------------------------|
 |Guitar 2 C#5                      G#5
e|--------------------------------|----------------------------------|
B|--------------------------------|----------------------------------|
G|-6-6-6-6-6-6-6-6-6-6-6-6-6-6-6--|----------------------------------|
D|-6-6-6-6-6-6-6-6-6-6-6-6-6-6-6--|-6-6-6-6-6-6-6-6-6-6-6-6-6-6-6-6--|
A|-4-4-4-4-4-4-4-4-4-4-4-4-4-4-4--|-6-6-6-6-6-6-6-6-6-6-6-6-6-6-6-6--|
E|--------------------------------|-4-4-4-4-4-4-4-4-4-4-4-4-4-4-4-4--|

Guitar 1
E|------------------------------------------------|-------------------------|
B|---14--14--14--14--14--14--14--14--14--14--14---|-16--16--16--16--16--16--|
G|-13--13--13--13--13--13--13--13--13--13--13--13-|--13--13--13--13--13--13-|
D|------------------------------------------------|-------------------------|
A|------------------------------------------------|-------------------------|
E|------------------------------------------------|-------------------------|
 | F#5                      F+                      G#5
E|------------------------------------------------|-------------------------|
B|-Guitar 2---------------------------------------|-------------------------|
G|------------------------------------------------|-------------------------|
D|-4-4-4-4-4-4-4-4-4-4-4-4--3-3-3-3-3-3-3-3-3-3-3-|-6-6-6-6-6-6-6-6-6-6-6-6-|
A|-4-4-4-4-4-4-4-4-4-4-4-4--4-4-4-4-4-4-4-4-4-4-4-|-6-6-6-6-6-6-6-6-6-6-6-6-|
E|-2-2-2-2-2-2-2-2-2-2-2-2--1-1-1-1-1-1-1-1-1-1-1-|-4-4-4-4-4-4-4-4-4-4-4-4-|

Guitar 2
Play chord with a slight Bend or use a Whammy Bar
e|------------------------|
B|------------------------|Also sounds like there is
G|-6--6--6--6--6--6--6--6-| a slight ring of feedback, Guitar 1 could stand
D|-6--6--6--6--6--6--6--6-| near amp for feedback
A|-4--4--4--4--4--4--4--4-|
E|------------------------|


Verse II:
Guitar 1 -Heavy Reverb
e|---0-0-0-0-0-0-0-0-0-0-0-0--0-0-0-0-0~---|
B|-o-9-9-9-9-9-9-9-9-9-9-9-9--2-2/4/6-6~-o-|
G|-----------------------------------------|
D|-----------------------------------------|
A|-o-------------------------------------o-|
E|-----------------------------------------|


PreChorus:
Guitar 1
e|---0-0-0-0-0-0-0-0-0-0-0-0-0-0-0-0-0-0-0-0-0-0-0-0-0----|
B|-o-9-9-9-9-9-9-9-9-9-9-9-9-9-9-9-9-9-9-9-9-9-9-9-9-9--o-|
G|--------------------------------------------------------|
D|--------------------------------------------------------|
A|------------------------------------------------------o-|
E|--------------------------------------------------------|
Guitar 2                                                  |
e|--------------------------------------------------------|
B|-o----------------------------------------------------o-|
G|--------------------------------------------------------|
D|---4-4-4-4-4-4-4/6-6-6-6-6-6-6/8-8-8-8-8-8-8-8-8-8-8/---|
A|-o-4-4-4-4-4-4-4/6-6-6-6-6-6-6/8-8-8-8-8-8-8-8-8-8-8/-o-|
E|---2-2-2-2-2-2-2/4-4-4-4-4-4-4/6-6-6-6-6-6-6-6-6-6-6/---|

Chorus:
Guitar 1
E|--------------------------------|----------------------------------|
B|o--14--14--14--14--14--14--14---|---13--13--13--13--13--13--13--13-|
G|-13--13--13--13--13--13--13--13-|-13--13--13--13--13--13--13--13---|
D|--------------------------------|----------------------------------|
A|o-------------------------------|----------------------------------|
E|--------------------------------|----------------------------------|
 |Guitar 2 C#5                      G#5
e|--------------------------------|----------------------------------|
B|o-------------------------------|----------------------------------|
G|-6-6-6-6-6-6-6-6-6-6-6-6-6-6-6--|----------------------------------|
D|-6-6-6-6-6-6-6-6-6-6-6-6-6-6-6--|-6-6-6-6-6-6-6-6-6-6-6-6-6-6-6-6--|
A|o4-4-4-4-4-4-4-4-4-4-4-4-4-4-4--|-6-6-6-6-6-6-6-6-6-6-6-6-6-6-6-6--|
E|--------------------------------|-4-4-4-4-4-4-4-4-4-4-4-4-4-4-4-4--|

Guitar 1
E|------------------------------------------------|-------------------------|
B|---14--14--14--14--14--14--14--14--14--14--14---|-16--16--16--16--16--16-o|
G|-13--13--13--13--13--13--13--13--13--13--13--13-|--13--13--13--13--13--13-|
D|------------------------------------------------|-------------------------|
A|------------------------------------------------|------------------------o|
E|------------------------------------------------|-------------------------|
 | F#5                      F+                      G#5
E|------------------------------------------------|-------------------------|
B|-Guitar 2---------------------------------------|------------------------o|
G|------------------------------------------------|-------------------------|
D|-4-4-4-4-4-4-4-4-4-4-4-4--3-3-3-3-3-3-3-3-3-3-3-|-6-6-6-6-6-6-6-6-6-6-6-6-|
A|-4-4-4-4-4-4-4-4-4-4-4-4--4-4-4-4-4-4-4-4-4-4-4-|-6-6-6-6-6-6-6-6-6-6-6-6o|
E|-2-2-2-2-2-2-2-2-2-2-2-2--1-1-1-1-1-1-1-1-1-1-1-|-4-4-4-4-4-4-4-4-4-4-4-4-|


Bridge: Piano [Sorry, I couldn't transcribe it]

Guitar 2 Heavy Palm Mute
e|-------------------------------------------|
B|o------------------------------------------|
G|-------------------------------------------|
D|-------------------------------------------|
A|o8-8-8-8-8-8-8-8-8-8-8-4-4-4-4-4-4-4-4-4-4-|
E|-6-6-6-6-6-6-6-6-6-6-6-2-2-2-2-2-2-2-2-2-2-|
PM * * * * * * * * * * * * * * * * * * * * *

e|-------------------------------------------|
B|------------------------------------------o|
G|-------------------------------------------|
D|-6-6-6-6-6-6-6-6-6-6-6---------------------|
A|-4-4-4-4-4-4-4-4-4-4-4-4-4-4-4-4-4-4-4-4-4o|
E|-----------------------2-2-2-2-2-2-2-2-2-2-|
   * * * * * * * * * * * * * * * * * * * * *

Guitar 1 [2:22  Tremelo Pick]
e|-------------------------------------------|
B|-------------------------------------------|
G|-------------------------------------------|
D|-------------------------------------------|
A|--14-------------------15--bend slowly-(16)|
E|-------------------------------------------|

  Guitar 1
e|-----------------------------------------|
B|-----------------------------------------|
G|-----------------------------------------|
D|-----------------------------------------|
A|(16)-----------------18----20-----20b----|
E|------------------------------bend slowly|
 Guitar 2
e|-----------------------------------------|
B|o----------------------------------------|
G|-----------------------------------------|
D|-----------------------------------------|
A|o4-4-4-4-4-4-4-4-4-4-6-6-6-6-6-6-6-6-6-6-|
E|-2-2-2-2-2-2-2-2-2-2-4-4-4-4-4-4-4-4-4-4-|
PM * * * * * * * * * * * * * * * * * * * *

Chorus II:
Guitar 1
e|--------------------------------------------------------------------------|
B|-14-14-14-14-14-14-14-14-14-14-14-14-13-13-13-13-13-13-13-13-13-13-13-13--|
G|-14-14-14-14-14-14-14-14-14-14-14-14-14-14-14-14-14-14-14-14-14-14-14-14--|
D|--------------------------------------------------------------------------|
A|--------------------------------------------------------------------------|
E|--------------------------------------------------------------------------|
PM * * * * * * * * * * * * * * * * * * * * * * * * * * * * * * * * * * * *
Guitar 2
e|--------------------------------------------------------------------------|
B|--------------------------------------------------------------------------|
G|--------------------------------------------------------------------------|
D|-----------------------------------------------------------|
A|--------------------------------------------------------------------------|
E|--------------------------------------------------------------------------|

Guitar 2
E|------------------------------------------------|-------------------------|
B|------------------------------------------------|-------------------------|
G|------------------------------------------------|-------------------------|
D|-4-4-4-4-4-4-4-4-4-4-4-4--3-3-3-3-3-3-3-3-3-3-3-|-6-6-6-6-6-6-6-6-6-6-6-6-|
A|-4-4-4-4-4-4-4-4-4-4-4-4--4-4-4-4-4-4-4-4-4-4-4-|-6-6-6-6-6-6-6-6-6-6-6-6-|
E|-2-2-2-2-2-2-2-2-2-2-2-2--1-1-1-1-1-1-1-1-1-1-1-|-4-4-4-4-4-4-4-4-4-4-4-4-|

Guitar 1
E|--------------------------------|----------------------------------|
B|o--14--14--14--14--14--14--14---|---13--13--13--13--13--13--13--13-|
G|-13--13--13--13--13--13--13--13-|-13--13--13--13--13--13--13--13---|
D|--------------------------------|----------------------------------|
A|o-------------------------------|----------------------------------|
E|--------------------------------|----------------------------------|
 |Guitar 2 C#5                      G#5
e|--------------------------------|----------------------------------|
B|o-------------------------------|----------------------------------|
G|-6-6-6-6-6-6-6-6-6-6-6-6-6-6-6--|----------------------------------|
D|-6-6-6-6-6-6-6-6-6-6-6-6-6-6-6--|-6-6-6-6-6-6-6-6-6-6-6-6-6-6-6-6--|
A|o4-4-4-4-4-4-4-4-4-4-4-4-4-4-4--|-6-6-6-6-6-6-6-6-6-6-6-6-6-6-6-6--|
E|--------------------------------|-4-4-4-4-4-4-4-4-4-4-4-4-4-4-4-4--|

Guitar 1
E|------------------------------------------------|-------------------------|
B|---14--14--14--14--14--14--14--14--14--14--14---|-16--16--16--16--16--16-o|
G|-13--13--13--13--13--13--13--13--13--13--13--13-|--13--13--13--13--13--13-|
D|------------------------------------------------|-------------------------|
A|------------------------------------------------|------------------------o|
E|------------------------------------------------|-------------------------|
 | F#5                      F+                      G#5
E|------------------------------------------------|-------------------------|
B|-Guitar 2---------------------------------------|------------------------o|
G|------------------------------------------------|-------------------------|
D|-4-4-4-4-4-4-4-4-4-4-4-4--3-3-3-3-3-3-3-3-3-3-3-|-6-6-6-6-6-6-6-6-6-6-6-6-|
A|-4-4-4-4-4-4-4-4-4-4-4-4--4-4-4-4-4-4-4-4-4-4-4-|-6-6-6-6-6-6-6-6-6-6-6-6o|
E|-2-2-2-2-2-2-2-2-2-2-2-2--1-1-1-1-1-1-1-1-1-1-1-|-4-4-4-4-4-4-4-4-4-4-4-4-|

Outro "Bite My Tongue"
Guitar 1
e|------------------------------|
B|------------------------------|
G|---6-6-6-6-6-6-6-6-6-6-6-6-6~-|
D|----6-6-6-6-6-6-6-6-6-6-6-6-~-|
A|------------------------------|
E|------------------------------|
Guitar 2
e|------------------------------|
B|------------------------------|
G|-6~~~~~~----------------------|
D|-6~~~~~~----------------------|
A|-4~~~~~~----------------------|
E|-4~~~~~~----------------------|  Fade Out with feedback,
guitar 2 stand near amp and shake guitar violently

| /  slide up
| \  slide down
| h  hammer-on
| p  pull-off
| ~  vibrato
| +  harmonic
| x  Mute note
| o  Repeat Sign
=============================================================================





Comments


Popular Relient K tabs & chords
Down In Flames Bass Tabs
The Pirates Who Dont Do Anything Bass Tabs
This Week The Trend 2 Bass Tabs
Faking My Own Suicide 1 Chords
Therapy Chords
Falling Out 2 Tabs
Savannah Intro 1 Tabs
The Scene And Herd Intro Tabs
I Need You Ukulele
Over Thinking Ukulele


Song lyrics



↑ Back to top | Tablatures and chords are parodies/interpretations of the original songs. You may use it for private study, scholarship, research or language learning purposes only
© 2014 AZChords.com Contact us | Privacy policy | DMCA | Add/correct tabs | Request tabs | Top 50 tabs