» » »

Rekiem, No Respires Tabs (ver.1)

Artists:  A B C D E F G H I J K L M N O P Q R S T U V W X Y Z # 

No Respires Tabs (ver.1)

Rekiem Tabs
 Rating:
4/5 (4 votes)
No Respires lessons Tabs too difficult? Try these video lessons and learn fast
                no respires (B,F#,B,E,G#,C#)

riff 1
|--------------------------||---|
|--------------------------||---|
|--------------------------||---|
|-2-0-2-0-2-0...-xxxxxxx---||-1:|
|-2-0-2-0-2-0...-xxxxxxx---||-1:|
|-2-0-2-0-2-0...-xxxxxxx---||-1:|

verso
|--------------------------|
|--------------------------|
|--------------------------|
|--------------------------|
|-5/6-6/9-9\5-5/6^---------|
|--------------------------|

coro
|--------------------------||--|
|--------------------------||--|despues del 2º coro
|-2-2-4-4-7-7-7-8----------||--|
|-0-0-2-2-5-5-5-6----------||0:|
|-0-0-2-2-5-5-5-6----------||0:|
|-0-0-2-2-5-5-5-6----------||0:|

bridge
(soy un cobarde)
|------------||-------------------------|
|------------||-------------------------|
|------------||-------------------------|
|-2-2-2-2----||-5-5-5-7-----6-6-6-8-----|
|-2-2-2-2----||-5-5-5-5-----6-6-6-6-----|
|-2-2-2-2----||-5-5-5-5-2-0-6-6-6-6-2-0-|

(es hora de terminar)
 |---------------------------------|
 |---------------------------------|
 |---------------------------------|
 |---------------------------------|
 |-666777666777667--66677766677744-|
 |---------------------------------|
pm................
            
Submit corrections

comments powered by Disqus
↑ Back to top | Rekiem Tabs for No Respires. Lyrics for acoustic guitar and electric guitar. Tablatures and chords are parodies/interpretations of the original songs. You may use it for private study, scholarship, research or language learning purposes only