>
 >
Claro Oscuro

Claro Oscuro Guitar Tabs

Rekiem - Claro Oscuro chords, tabs, tablatures, lyrics

Guitar lessons | Add/correct | Request | Top 50 tabs Artists:  A B C D E F G H I J K L M N O P Q R S T U V W X Y Z 0-9

Claro Oscuro Guitar Tabs – Rekiem

CD, Sheet music, Poster

Do you like Claro Oscuro? Share with your friends now
Tabs
clarooscuro(B,F#,B,E,G#,C#)

coro
|----------------------|
|----------------------|
|----------------------|
|-1-0---01-1-1-3-------|
|-1-0---01-1-1-3-------|
|-1-0-3*01-1-1-3-------|

verso
4|4444444445555555588888888887777|


antes de pasar al lento la guitarra 4|3333333|


bridge( es con la misma distorcion del coro)para que suene asi tienes 
que apretar fuertes las cuerdas y haciendo slides con la mano izquierda y con la 
derecha subes y bajas el volumen
|----------------------|
|----------------------|
|----------------------|
|----------------------|
|--6\0-----------------|
|------0/7-7/10--10\0--|


|-----------------------|
|-----------------------|
|-----------------------|
|-100010000-10001000333-|
|-100010000-10001000333-|
|-100010000-10001000333-|

el enemigo.....

|--------|
|--------|
|--------|
|-101013-|
|-101013-|
|-101013-|





Comments


Popular Rekiem tabs & chords
104 Tabs
Cautiverio Tabs
No Respires Tabs
Traga Tabs


Song lyrics



↑ Back to top | Tablatures and chords are parodies/interpretations of the original songs. You may use it for private study, scholarship, research or language learning purposes only
© 2014 AZChords.com Contact us | Privacy policy | DMCA | Add/correct tabs | Request tabs | Top 50 tabs