>
 >
It Dont Mean A Thing

It Dont Mean A Thing Guitar Tabs

Reinhart Django - It Dont Mean A Thing chords, tabs, tablatures, lyrics

Guitar lessons | Add/correct | Request | Top 50 tabs Artists:  A B C D E F G H I J K L M N O P Q R S T U V W X Y Z 0-9

It Dont Mean A Thing Guitar Tabs – Reinhart Django

CD, Sheet music, Poster

Do you like It Dont Mean A Thing? Share with your friends now
Tabs
Django Reinhard - It Don't Mean A Thing (1932)

medium = 136 bpm                    


Lead Guitar
     Gm                            Eb7   D7    G7         
E||---------------10~-----------|------------------------|
B||-----------11-------------11-|--13r-----11------------|
G||--7----12--------------12----|--------------12--------|
D||-----------------------------|------------------------|
A||-----------------------------|------------------------|
E||-----------------------------|------------------------|


  C7            F7         Bb                    D7             
----------10------------|----------------10--9-8---------------|
---10/11----------------|-------------------------10-----------|
------------------------|--10h11p10-9-10-------------11--7-----|
------------------------|-----------------------------------9--|
------------------------|--------------------------------------|
------------------------|--------------------------------------|


  Gm                       Eb7      D7    G           
------------------------|----------------------------|
------------------------|----------------------------|
-------------7----------|--6--6--6--5----------------|
--5----5--8---------5-8-|--------------8--5----5/-8--|
------------------------|----------------------------|
------------------------|----------------------------|


  C7            F7            Bb                          
-----10----------10--------|-----8-----------------8-----|
---------8----8------8-----|--------8------------8----8--|
--7---------7--------------|--7--------7---0---7---------|
---------------------------|-------------8---8-----------|
---------------------------|-----------------------------|
---------------------------|-----------------------------|


  Bb7                              Eb7M                       
-------10--9-8h9p8------------6-|--3h4p3---------------------|
--------------------9-6---------|--------------------------8/|
--7---------------------7-6-5---|--------3---------------9---|
--------------------------------|-----------5---------10-----|
--------------------------------|----------------------------|
--------------------------------|----------------------------|


  C7                                       F7                 D7             
----------------------------------------|-----------------------------------|
--13--12--11--10------------------------|---------------------------------3-|
------------------13--12--11/10-11p10p9-|-----------------------------------|
----------------------------------------|--12-11-10-9-8-7-6-5-4-3-2-1-0-----|
----------------------------------------|-----------------------------------|
----------------------------------------|-----------------------------------|


  Gm                             Eb7     D7    G                
--2-5-3-----------6/10--10----|--10~---------------------------|
----------------8-------------|-------13---11-----------10-11--|
----------0---7---------------|----------------12----12--------|
------------8-----------------|--------------------------------|
------------------------------|--------------------------------|
------------------------------|--------------------------------|


  C7                               Bb        D7       
--10---------10-----------10----|--------15----------|
----------11--------7-10--------|--------------------|
-------12---------8-------------|--------------------|
--------------------------------|--------------------|
--------------------------------|--------------------|
--------------------------------|--------------------|


  Gm                                               
--15-14-17-14-15-14-17-14-15-14-17-14-15-14-17-14-|
--------------------------------------------------|
--------------------------------------------------|
--------------------------------------------------|
--------------------------------------------------|
--------------------------------------------------|


  Eb7         D7          G                  
--15-14-17-14-15-14-17-14-15----13-12-10----|
-----------------------------------------12-|
--------------------------------------------|
--------------------------------------------|
--------------------------------------------|
--------------------------------------------|


  C7                 F7                             
---------------12-15-13h14p13-12-13-11h12p11-10-11-|
--13--------13-------------------------------------|
------9--12----------------------------------------|
---------------------------------------------------|
---------------------------------------------------|
---------------------------------------------------|


  Bb                      D7                  
--10h11p10-9-10-8h9p8-7-8-6h7p6-5-6-5h6p5----|
---------------------------------------------|
------------------------------------------7--|
---------------------------------------------|
---------------------------------------------|
---------------------------------------------|


  Gm                                       
------------------------------------------|
--------------10--11--13--10--11------10--|
--12------12----------------------12------|
------------------------------------------|
------------------------------------------|
------------------------------------------|


  Eb7         D7          G                    C7        F7              
--------------------------------------11/---|--------------------6--5-8-|
--11--13--10--11------10--11--13--14--------|------------------8--------|
------------------12------------------------|--------------5-7----------|
--------------------------------------------|----------5-8--------------|
--------------------------------------------|--------7------------------|
--------------------------------------------|---------------------------|


  Bb                                  Bb7                               
--6h7p6-------------------10-13-10-|--9-12-9-8-11-8--------------------|
--------8-6------------------------|----------------9-0------8-11-8----|
------------6-7---0----------------|-----------------------8-----------|
----------------8---8--------------|--------------------10-------------|
-----------------------------------|-----------------------------------|
-----------------------------------|-----------------------------------|


  Eb7M                               C7                           
-------------10--10------10h11h12-|--12-10---10-----10----10-----|
--------8-11----------------------|------------------------------|
----7/8---------------------------|--------------9------9--------|
----------------------------------|------------------------------|
----------------------------------|------------------------------|
----------------------------------|------------------------------|


  F7           D7               Gm                        
---10---9--10--11--10/-5--6--|--------------10---8---10--|
-----------------------------|--8----8--11---------------|
---7----6--7---8---7/--2--3--|--------------7----5---7---|
-----------------------------|--5----5--8----------------|
-----------------------------|---------------------------|
-----------------------------|---------------------------|


 Eb7  D7     G                C7           F7             Bb               
--9---8--------------------|--8--10--10-----10---10----|--------------------|
---------11--8----8--10----|---------------------------|--11----------------|
--6---5--------------------|--5--7---7------7----7-----|--------------------|
---------8---5----5--7-----|---------------------------|--8-----------------|
---------------------------|---------------------------|--------------------|
---------------------------|---------------------------|--------------------|


                             G               C7              F7              
------------------|-----------4--3--------|---------------------------------|
------------------|----------------6--3---|------------------------------3--|
------------------|---------------------4-|--5p4-5p4-5p4-5p4-5p4-5p4-5-6----|
------------------|-----------------------|---------------------------------|
------------------|-----------------------|---------------------------------|
------------------|-----------------------|---------------------------------|


  Bb       D7                                    G                
-------------------|------------------|----------------------1-4-|
-------------------|------------------|--------------------3-----|
------3------------|------------------|----------------1-4-------|
-------------------|------------------|------------0-3-----------|
-------------------|------------------|----------2---------------|
-------------------|------------------|--------------------------|


  C7                F7          Bb7                           
--3h4p3-0--------------------|-------------------------------|
----------1------------------|-------------------------------|
------------3-0--------------|-------------------------------|
----------------2---3--------|-------------------------------|
------------------3----------|--1p0-1p0-1p0-1p0-1p0-1p0-1----|
-----------------------------|-------------------------------|


                     5x          G                    
|--------------------||------------15-14-17-14-15-14-|
|--------------------||------------------------------|
|*------------------*||------------------------------|
|*------------------*||------------------------------|
|--------------------||------------------------------|
|--------------------||------------------------------|


  C7                      F7                         Bb            D7       
--17-14-15-14-17-14-15-14-17-14-15-14-17-14-15-14-|--16----15---14---------|
--------------------------------------------------|------------------------|
--------------------------------------------------|------------------------|
--------------------------------------------------|------------------------|
--------------------------------------------------|------------------------|
--------------------------------------------------|------------------------|


  Gm                                                                        2x
------------10---13---12--|--------13--12--10--------||--------------------||
-8----11------------------|----13--------------------||--------------------||
------------7----10---9---|--------10--9---7---------||*------------------*||
-5----8-------------------|----10--------------------||*------------------*||
--------------------------|--------------------------||--------------------||
--------------------------|--------------------------||--------------------||


  Gm                                      Eb7      D7     G           
------------10------------9------------|--8------------7-------------|
--8h9p8-7-8-----8h9p8-7-8----8h9p8-7-8-|-----8h9p8-7-8----8----------|
---------------------------------------|--------------------7--------|
---------------------------------------|----------------------9------|
---------------------------------------|-----------------------------|
---------------------------------------|-----------------------------|


                     2x  Bb7                             
|--------------------||----6/-10--9-8-----------------6-|
|--------------------||---------------9-----------------|
|*------------------*||-----------------10-7-6-5h6p5----|
|*------------------*||---------------------------------|
|--------------------||---------------------------------|
|--------------------||---------------------------------|


  Eb7M                        C7                             
--3------------------------|--10--9--8--7--6h7p6------------|
----4-----------------8-11-|---------------------8----------|
------3-------------8------|-----------------------7----0---|
---------5-----------------|-------------------------8----8-|
---------------------------|--------------------------------|
---------------------------|--------------------------------|


  F7           D7             Gm                                            
------6--10----10~---10~---|--------------15-------14-------13------12-----|
----8----------------------|-----------------------------------------------|
--7------------------------|--12-12-12-12----12-11----11-10----10-9----9-8-|
---------------------------|-----------------------------------------------|
---------------------------|-----------------------------------------------|
---------------------------|-----------------------------------------------|


                                G7                2x
--11-----10-----9----------||---3-----------------||
---------------------------||---6-----------------||
-----8-7----7-6------------||*--4----------------*||
---------------------------||*--3----------------*||
---------------------------||---5-----------------||
---------------------------||---3-----------------||


***********************************************************

That's all folks! Try to play it originally fast!





Comments


Popular Reinhart Django tabs & chords
Dinah Tabs
Djangos Death Polka Tabs
Fleche Dor Tabs
Minor Swing Tabs
Not Django Tabs
Nuages Tabs
Nuages 1 Tabs
Tears Tabs
Tears 1 Tabs
Tears 2 Tabs


Song lyrics



↑ Back to top | Tablatures and chords are parodies/interpretations of the original songs. You may use it for private study, scholarship, research or language learning purposes only
© 2014 AZChords.com Contact us | Privacy policy | DMCA | Add/correct tabs | Request tabs | Top 50 tabs