» » »

Wirklich Schn Wieder Ein Jahr Chords (ver.1)

Artists:  A B C D E F G H I J K L M N O P Q R S T U V W X Y Z # 

Wirklich Schn Wieder Ein Jahr Chords (ver.1)

Reinhard Mey
Rating:
0/5 (0 votes)

Hard to play? Try these video lessons and learn fast.
                


Album:

Tuning: EADGBe (normal)

Today, I'm gonna submit a German song acctually. I heard it in my German class, and
I thought it was a quite nice little tune. I downloaded the song (wirklich schön wieder ein
jahr) and some other songs by mr. Mey. He's got alot of good stuff, so you better check 
out.

I'm just gonna show the way of playing the song at the 2 first verses, because it goes the
same way at the other verses too. The song ends with a C and a G.

The tones inside these -> () are optional.

The song uses plain old travis-picking.
Like this:
e|-(0)---------(0)--|	I like hitting the lightest e-string, because it
B|--0-----------0---|	sounds good, but you don't have to.
G|--------0---------|
D|-----0------------|
A|--0--------0------|
E|------------------|

Intro	      Riff1
riff	        C	       F	      G		     G
e|-----------|-(0)---------(0)(1)---------(1)---------------(3)---------(3)--|
B|-----------|--1-----------1--1-----1-----1-(3)---------(3)-3-----------3---|
G|-----------|--------0-----------2-----------0-----0-----0--------0---------|
D|-----------|-----2-----------3--------3--------0--------------0------------|
A|-----0--2--|--3--------3---------------------------------------------------|
E|--3--------|--------------------------------3--------3-----3--------3------|


Riff2
    C		   Dm		  G		 C
e|-(0)---------(0)(1)---------(1)---------------(0)---------(0)--|  I don't hit the e-string
B|--1-----------1--3-----3-----3-(3)---------(3)-1-----------1---|  at the last Cit
G|--------0-----------2-----------0-----0-----0--------0---------|  sounds different from
D|-----2-----------0--------0--------0--------------2------------|  the first C.
A|--3--------3-----------------------------------3--------3------|
E|--------------------------------3--------3---------------------|


Riff3
    Am		   Dm		  G		 G
e|----------------------------------------------(3)---------(3)--|
B|--1-----------1--3-----3-----3-(3)---------(3)-3-----------3---|
G|--------2-----------2-----------0-----0-----0--------0---------|
D|-----2-----------0--------0--------0--------------0------------|
A|--0--------0---------------------------------------------------|
E|--------------------------------3--------3-----3--------3------|


Riff4
    F		   F		  G		 G
e|----------------------------------------------(3)---------(3)--|
B|-(1)---------(1)(1)---------(1)(3)---------(3)-3-----------3---|
G|--2-----2-----2--2-----2-----2--0-----0-----0--------0---------|
D|-----3--------------3--------------0--------------0------------|
A|---------------------------------------------------------------|
E|--1--------1-----1--------1-----3--------3-----3--------3------|


Riff5
    C		   Am		  C		 C
e|-(0)---------(0)---------------(0)---------(0)(0)---------(0)--|
B|--1-----------1--------------1--1-----------1--1-----------1---|
G|--------0--------2-----2--------------0--------------0---------|
D|-----2--------------2--------------2--------------2------------|
A|--3--------3-----0--------0-----3--------3-----3--------3------|
E|---------------------------------------------------------------|
I have had a bit of a problem hearing exact what he's playing here because of
the choir singing, but I think it's like this.


Riff6
    Em		   Em		  F		 F
e|----------------(0)---------(0)---------------(1)---------(1)--|
B|-(0)---------(0)-0-----------0-(1)---------(1)-1-----------1---|
G|--0-----0-----0--------0--------2-----2-----2--------2---------|
D|-----2--------------2--------------3--------------3------------|
A|---------------------------------------------------------------|
E|--0--------0-----0--------0-----1--------1-----1--------1------|


Riff7
    Dm		   Dm		  G		 G
e|-(1)---------(1)(1)---------(1)---------------(3)---------(3)--|
B|--3-----3-----3--3-----3-----3-(3)---------(3)-3-----------3---|
G|-----2--------------2-----------0-----0-----0--------0---------|
D|--0--------0-----0--------0--------0--------------0------------|
A|---------------------------------------------------------------|
E|--------------------------------3--------3-----3--------3------|

Riff1 x2
Ist das schon so lange her? Wirklich, schon wieder ein Jahr?
Riff2 x2
Noch weht mir der Wind von der See her entgegen, noch finde ich Sand in meinen 
und
Riff3
Dünengras in meinem Haar,
Riff4
spür' auf den Lippen das Meer;
Riff5
wirklich, schon wieder ein Jahr?
Riff6
Wirklich, schon wieder ein Jahr?

Riff7
Ist es schon wieder so spät?
Riff2 x2
Mir taut noch der Vorjahrsschnee von meiner Mütze um meine Schuhe entsteht eine Pfütze
Riff3
auf dem gewachsten Parkett
Riff4
werd ich den Winter gewahr.
Riff5
Wirklich, schon wieder ein Jahr?


Wirklich, schon wieder ein Jahr? Ist also morgen schon heut?
Noch schwirren vom vorigen Sommer die Mücken um meinen Kopf,
meine Finger zerpflücken Akazienblätter, zerstreut:
Ein wenig, von Herzen... ist's wahr?
Wirklich, schon wieder ein Jahr?
Wirklich, schon wieder ein Jahr?

Die Tage hab ich nicht gezählt.
Noch raschelt verwelktes Laub unter den Schritten,
im vorigen Herbst von der Hecke geschnitten.
Noch glimmt Erntefeuer im Feld,
Flammenlos, kaum wahrnehmbar. Wirklich, schon wieder ein Jahr?

Bin immer noch, der ich war. Erwachsener werd ich wohl nicht.
Ich hab einen Jahresring mehr wie die Bäume,
eine dickere Rinde, ein paar neue Träume und Lachfalten mehr im Gesicht. Wirklich, schon 
ein Jahr?
Wirklich, schon wieder ein Jahr?
            
Hard to play? Try these video lessons and learn fast. | Correct




comments powered by Disqus
↑ Back to top | Tablatures and chords are parodies/interpretations of the original songs. You may use it for private study, scholarship, research or language learning purposes only