» » »

Sabes Tabs (ver.1)

Artists:  A B C D E F G H I J K L M N O P Q R S T U V W X Y Z # 

Sabes Tabs (ver.1)

Reik
Rating:
3/5 (5 votes)

Hard to play? Try these video lessons and learn fast.
                capo 1 

6-------------/--------------/-----0------/-------------|
5---2---------/--------------/--------2---/------0------|
4------4------/--------3--0--/----2-------/----------2--|
3-----------4-/-----0--------/--0---------/----2--------|
2--------2----/--------------/------------/-0-----------|
1-------------/---3----------/------------/-------------|

6-------------/--------------/------0-----/-------------|
5---2---------/--------------/----2----2--/-----0-------|
4-----4-------/-------3---0--/--0---------/-------0--2--|
3----------4--/----0---------/------------/---2---------|
2-------2-----/--------------/------------/-0-----------|
1-------------/--3-----------/------------/-------------|


D                  G
sabes, no pido nada mas
                      D
que estar entre tus brazos
                  G
y huir de todo el mal
                    Em    
que a todo he renunciado
        A
por estar junto a ti


D                  G
sabes no dejo de pensar
               D
que estoy enamorado
                G
te quiero confesar
                 Em     
que soy solo un esclavo
         A                  
que no sabe vivir, sin ti

Bm      G        D   
cuando llegaste tu
      A            Bm
te metiste en mi ser
       G        D
encendiste la luz
      A          Em
me llenaste de fe
              G   
tanto tiempo busque
                    Em
pero al fin te encontre
                    A        
tan perfecta como te imagine   oo nooo

      G          D
como aguja en un pajar
       A            G
te busque sin cesar
       G          D
como huella en el mar
        A            Em
tan dificil de hallar
                 G
tanto tiempo busque
                   Em
pero al fin te encontre
            A
tan perfecta, como te imagine

INTRO

(aki se repiten los acordes)

sabes te quiero confesar

que te encuentro irressistible

no dejo de pensar

que haria lo imposible

por quedarme cerca de ti

cuando llegaste tu

te metiste en mi ser

encendiste la luz

me llenaste de fe

tanto tiempo busque

pero al fin te encontre

tan perfecta como te imagine

como aguja en un pajar

te busque sin cesar

como huella en el mar

tan dificil de hallas

tanto tiempo busque

pero al fin te encontre

tan perfecta, como te imagine


   D                 G
sabes, no pido nada mas
                   D
que estar entre tus braaazooos
            
Hard to play? Try these video lessons and learn fast. | Correct




comments powered by Disqus
↑ Back to top | Tablatures and chords are parodies/interpretations of the original songs. You may use it for private study, scholarship, research or language learning purposes only