» » »

What The Hell Is A Stipulation? Tabs (ver.2)

Artists:  A B C D E F G H I J K L M N O P Q R S T U V W X Y Z # 

What The Hell Is A Stipulation? Tabs (ver.2)

Reggie And The Full Effect
Rating:
0/5 (0 votes)

Hard to play? Try these video lessons and learn fast.
                What the Hell Is Stipulation
Reggie and the Full Effect

Tuning: Drop D (DADGBe)

Intro riff 1
|---------|
|---------|
|---------|
|----0----| repeat x4 then
|----0----|
|----0----|
PM.........

Intro riff 2
|-------------------------|
|-----------------7-------|
|-------7----7---------7--|
|----0----0----0----0-----|
|----0----0----0----0-----|
|----0----0----0----0-----|

repeat intro riff 1 x8

Chorus
|-------------------------------------------|
|-------------------------------------------|
|-------------------------------------------|
|--0-----5-7---2-----5-7--3-----7-5--8------|
|--0-x4--5-7---2-x4--5-7--3-x4--7-5--8-x5---|
|--0-----5-7---2-----5-7--3-----7-5--8------|
PM.....       PM....     PM...       PM...

Interlude
|-----------------------------|
|-----------------------------|
|-----------------------------|
|--5---8---3---1--------------|
|--5---8---3---1--------------|
|--5---8---3---1--------------|

repeat intro riff x2

repeat chorus x1

Play intro riff till the end

'K, thats the song. Didn't bother to tab the strumming pattern 'cause that would have 
up some space, but it's not hard to figure out. 80% sure of correctness, so if you find a 
let me know, and then after you let me know you can post your own correct tab. Comment/rate if you like it.
L8r dudes.
            
Hard to play? Try these video lessons and learn fast. | Correct




comments powered by Disqus
↑ Back to top | Tablatures and chords are parodies/interpretations of the original songs. You may use it for private study, scholarship, research or language learning purposes only