» » »

Reggie And The Full Effect, Take Me Home, Please Tabs (ver.1)

Artists:  A B C D E F G H I J K L M N O P Q R S T U V W X Y Z # 

Take Me Home, Please Tabs (ver.1)

Reggie And The Full Effect Tabs
 Rating:
4/5 (4 votes)
Take Me Home, Please lessons Tabs too difficult? Try these video lessons and learn fast
                -----------------------------------------------------------------------------
                     Reggie and the Full Effect - Take Me Home, Please
-----------------------------------------------------------------------------

Tuning: Standard (E,A,D,G,B,e)

Intro Guitar 1 (0:00-0:27):
(Finger picking helps with this part)
(I think this is synth, but here's the guitar)
                                  Times 1-3        Time 4
e|-12----12-10----10-9-12----12-|-16----16-17----|-19----19-17--------------|
B|----10-------10---------10----|----------------|--------------------------|
G|------------------------------|----13-------13-|-------------13-----------|
D|------------------------------|----------------|----19--------------------|
A|------------------------------|----------------|--------------------------|
E|------------------------------|----------------|--------------------------|
(Also, during the verse, a variation of this is played,
 but it is too high for a guitar, so i think it is synth.)



Intro Guitar 2 (0:14-0:27):

e|--------------------------------------------------------------------------|
B|--------------------------------------------------------------------------|
G|--------------------------------------------------------------------------|
D|-7777777777777777\4444444444444444-2222222222222222/9999999999999999------|
A|-7777777777777777\4444444444444444-2222222222222222/9999999999999999------|
E|-5555555555555555\2222222222222222-0000000000000000-7777777777777777------|



Chorus (1:07-1:33 , 2:13-2:39 & 3:06-4:00):

Exactly the same as the "Intro Guitar 2"



Last note (4:00):

e|---|
B|---|
G|---|
D|-7-|
A|-7-|
E|-5-|

=============================================================================
| /  slide up
| \  slide down
| h  hammer-on
| p  pull-off
| ~  vibrato
| +  harmonic
| x  Mute note
=============================================================================
            
Submit corrections

comments powered by Disqus
↑ Back to top | Reggie And The Full Effect Tabs for Take Me Home, Please. Lyrics for acoustic guitar and electric guitar. Tablatures and chords are parodies/interpretations of the original songs. You may use it for private study, scholarship, research or language learning purposes only